tablaturas, partituras y acordes para guitarra
Busca por banda/artista:
 
y/o título de la canción:
A B C D E F G H I J K L M N O P Q R S T U V W X Y Z 0 1 2 3 4 5 6 7 8 9 / Top 100 tabs
Categorías
Usuarios
usuario:
Darse de alta
password:
Artistas más visitados
Publicidad
TOP acordes y tablaturas de Guns N Roses


Estás en: Inicio > Letra G > Acordes y tablaturas de Guns N Roses > Godfather Theme
Godfather Theme
de Guns N Roses
Puntúa este acorde/tab:      
(0.5/5)
Reportar este acorde/tab
  Añadir a tus favoritos
  Imprimir
This is what I’ve made up so far by blended a couple of tabs together. I don’t h

Key:
~~  vibrato
^   bend
/   slide forward


|-------------------------------------------------------------------------------
|-15-14-16-15-15--------15-14-16-15-15--------15-14-18-15-14-15^-14^------14^---
|-------------------15~~--------------------14~~------------------------------14
|-------------------------------------------------------------------------------
|-------------------------------------------------------------------------------
|-------------------------------------------------------------------------------

|------10-13-12-10-13-10-12------------------10-13-12-10-13-10-12---------------
|--10---------------------------11-13-10~--10--------------------------/10-9-8~-
|-------------------------------------------------------------------------------
|-------------------------------------------------------------------------------
|-------------------------------------------------------------------------------
|-------------------------------------------------------------------------------

|----------------------------------------------10-10-9-8-12-8-------------------
|----------------------------------------------------------------11-10~~-10-13-1
|--14-15p14-15^-14-15-14--------------------------------------------------------
|-----------------------------15-11-12~-----------------------------------------
|-------------------------------------------------------------------------------
|-------------------------------------------------------------------------------

This is the part with the solo. I’m sure u can make one up.

|-----------------------------------------------|
|---------13-11-10---13-11-10--------------|
|------10--------------------------------------|
|--/12------------------------------11-12-----|
|-----------------------------------------------|
|-----------------------------------------------|
		   
AcordesyTabs.com © 2008 Acordes y Tablaturas para guitarra. Tabs and Chords for guitar. Aviso Legal - Contacto
El uso de este sitio está sujeto a la aceptación de los términos y condiciones (29 usuarios online)