tablaturas, partituras y acordes para guitarra
Busca por banda/artista:
 
y/o título de la canción:
A B C D E F G H I J K L M N O P Q R S T U V W X Y Z 0 1 2 3 4 5 6 7 8 9 / Top 100 tabs
Categorías
Usuarios
usuario:
Darse de alta
password:
Artistas más visitados
Publicidad
TOP acordes y tablaturas de Divididos


Sisters
de Divididos
Puntúa este acorde/tab:      
(0.6/5)
Reportar este acorde/tab
  Añadir a tus favoritos
  Imprimir
Esta es una corrección de la publicada anteriormente.

REm
G-|----------------------------------|
D-|----------------------------------|
A-|-2-2-3-3-4-5-2-3-4-5h17-17-17-17--|
E-|----------------------------------|

DO
G-|--------------------|
D-|--------------------|
A-|-3-5-5-3-/-3-5-5-3--|
E-|--------------------|

SIb
G-|----------------------------|
D-|----------------------------|
A-|-1-1-1-3-3-1-/-1-1-1-3-3-1--|
E-|----------------------------|

FA
G-|----------------------------|
D-|----------------------------|
A-|----------------------------|
E-|-1-1-1-3-3-1-/-1-1-1-3-3-1--|

Repite esta base durante todo el tema salvo alguna variación.
		   
AcordesyTabs.com © 2008 Acordes y Tablaturas para guitarra. Tabs and Chords for guitar. Aviso Legal - Contacto
El uso de este sitio está sujeto a la aceptación de los términos y condiciones (24 usuarios online)