tablaturas, partituras y acordes para guitarra
Busca por banda/artista:
 
y/o título de la canción:
A B C D E F G H I J K L M N O P Q R S T U V W X Y Z 0 1 2 3 4 5 6 7 8 9 / Top 100 tabs
Categorías
Usuarios
usuario:
Darse de alta
password:
Artistas más visitados
Publicidad
TOP acordes y tablaturas de System of a down


Sugar solo
de System of a down
Puntúa este acorde/tab:      
(0.5/5)
Reportar este acorde/tab
  Añadir a tus favoritos
  Imprimir

sugar by system of a down

intro
e---------------
b---------------
g---------------
d--0--7--5--4---
a--0--7--5--4---
d--0--7--5--4---


solo
e------13--13--12----------10----10------
b--10--------------13--10------------------
g------------------------------------------
d------------------------------------------
a------------------------------------------
d------------------------------------------


if you want the tab to the verses&chorus, go to tabdatabase.com

keep rokin'!

		   
AcordesyTabs.com © 2008 Acordes y Tablaturas para guitarra. Tabs and Chords for guitar. Aviso Legal - Contacto
El uso de este sitio está sujeto a la aceptación de los términos y condiciones (10 usuarios online)