tablaturas, partituras y acordes para guitarra
Busca por banda/artista:
 
y/o título de la canción:
A B C D E F G H I J K L M N O P Q R S T U V W X Y Z 0 1 2 3 4 5 6 7 8 9 / Top 100 tabs
Categorías
Usuarios
usuario:
Darse de alta
password:
Artistas más visitados
Publicidad
TOP acordes y tablaturas de Ricardo Arjona


Me dejaste
de Ricardo Arjona
Puntúa este acorde/tab:      
(0.4/5)
Reportar este acorde/tab
  Añadir a tus favoritos
  Imprimir
bueno una ves mas aqui estamos con esta rola 
del arjona, la verdad es que todo mundo mando las notas
pero nadie la melodia del principio y de el centro
asi que para que no se queden con la duda aqui esta, facilicima  
dudas y sugerencias envienlas al correo, dedicada para RM
 y arriba chihuahua, viva el norte.

aqui estan algunas notas raras por si no se las saben:
     
     EADGBe

Em7  022070
D/F# 200230
D/C  030230
D/B  020230
D    000230 2
C9   032030
Am/G 302010
PRIMERO EMPIESA EL PIANO Y LE SIGUE LA GUITARRA CON ESTO:


           G        D         Em     D      C         D
e--2-3-5--5/7--7-7-5--10-10--3-5-3--3-2-3-2-3-----------------/
B----------------------------------------------3--0-1---1/3---/
G-----------------------------------------------------2-------/
D-------------------------------------------------------------/
A-------------------------------------------------------------/
E-------------------------------------------------------------/



G             D           Em
Me dejaste un beso en la gaveta
                D            C                
y un brassier tirado en el sofa
             Em7         Am
un ataque de celos en la mesa
            Am/G        D/F#    D/C D/B D (Esto es tocar re con su respectivo bajo)
y tu perfume pegado en la pared.

G             D           Em
Me dejaste el mundo de cabeza
            D            C
y un grito en el contestador
             Em7         Am 
que anunciaba con toda certeza
            Am/G        D/F#    D/C  D/B  D
que esta vez se te acabo el amor.

G             D           Em
Me dejaste un pero y un porque
                D            C
unos cuantos insultos y un adiós
             Em7         Am
una duda flotando en mi cabeza
            Am/G        D/F#    D/C  D/B  D
y la promesa de no volver jamás.


B7                             Em
Lo que siento lo guardo en la nevera
C9                  D          G
por si un día decides regresar.

CORO: 
G                      D
Que hago con este cementerio de sueños
      C         G
y con toda mi mitad
    D              C
con esta deuda de afectos 
                 G
y con tanta libertad.

 G               D     
Que hago este insomnio en la noche
      C          G
y mi falta de apetito
  D              C
donde meto los reproches
                            G
y tu foto si la pongo o la quito.


e--2-3-5--5/7--7-7-5--10-10---5-3--3-2-3-2-3-----------------/
B---------------------------------------------3--0-1---1/3---/
G----------------------------------------------------2-------/
D------------------------------------------------------------/
A------------------------------------------------------------/
E------------------------------------------------------------/


  G             D           Em
Me vendiste un sueño al dos por uno
            D            C
y me dejaste solo realidad
          Em7           Am
una casa minada de recuerdos
           Am/G        D/F#  D/C  D/B  D
y el dentifrico aplastado a la mitad.

 G             D           Em
Me dejaste el tiempo que perdí
            D            C
te llevaste mi despertador
          Em7           Am
me dejaste la ropa interior
          Am/G        D/F#  D/C  D/B  D
que te dí para quitartela.

B7                             Em
Lo que siento será cuestión de tiempo
C9                  D          G
para ver si se queda o se va.

CORO
G                      D
Que hago con este cementerio de sueños
      C         G
y con toda mi mitad
    D              C
con esta deuda de afectos 
                 G
y con tanta libertad.

 G               D     
Que hago este insomnio en la noche
      C          G
y mi falta de apetito
  D              C
donde meto los reproches
                            G
y tu foto si la pongo o la quito.


e------0-2-3-5--5/7--7-7-5--10-10--3-5-3--3-2-3-2-3-----------------/
B--2-3-----------------------------------------------3--0-1---1/3---/
G-----------------------------------------------------------2-------/
D-------------------------------------------------------------------/
A-------------------------------------------------------------------/
E-------------------------------------------------------------------/


CORO

QUE HAGO ............ INTRO
		   
AcordesyTabs.com © 2008 Acordes y Tablaturas para guitarra. Tabs and Chords for guitar. Aviso Legal - Contacto
El uso de este sitio está sujeto a la aceptación de los términos y condiciones (24 usuarios online)