tablaturas, partituras y acordes para guitarra
Busca por banda/artista:
 
y/o título de la canción:
A B C D E F G H I J K L M N O P Q R S T U V W X Y Z 0 1 2 3 4 5 6 7 8 9 / Top 100 tabs
Categorías
Usuarios
usuario:
Darse de alta
password:
Artistas más visitados
Publicidad
TOP acordes y tablaturas de Resorte


Estás en: Inicio > Letra R > Acordes y tablaturas de Resorte > Sobre tierra
Sobre tierra
de Resorte
Puntúa este acorde/tab:      
(0.5/5)
Reportar este acorde/tab
  Añadir a tus favoritos
  Imprimir
Intro: 00:00-00:23
Guitarra 1
e-x--------------------------
B---x------------------------
G----x-----------------------
D------3------3----3----3---
A-------3------3-----3---3--
E---------5------5----5----5-
	
Guitarra 2
e--------------------------
B-------------------------
G----5/12---------------
D------------------------
A-------------------------
E-------------------------	

Guitarra 2

e-------------------------
B-------------------------
G----6/13-----------------
D--------------------------
A--------------------------
E-------------------------

Riff 1  00:23-00:43

e-----------------------------------------------------
B-----------------------------------------------------
G-----------------------------------------------------         X4
D-5-7-5----5678---5---575----5678565------------------
A-5-7-5----5678---5---575----5678565------------------
E-3-5-3----3456---3---343----3456343------------------

e-----------------------------------------------------
B-----------------------------------------------------
G-----------------------------------------------------  
D-568-565-575-5678-565—56785-565----------------
A-568-565-575-5678-565—56785-565----------------
E-346-343-345-3456-343-34563-343-----------------

Coro  00:43-01:05

Guitarra 1
e----------------------------------------------------
B----------------------------------------------------
G---------------------------------------------------- 
D-5-4-5--88-7-6--------------------------------------
A-5-4-5--88-7-6--------------------------------------
E-3-2-3--66-5-4--------------------------------------

Guitarra 2                                                                            X8

e----------------------------------------------------
B-----11/12------------------------------------------
G---------------------------------------------------- 
D----------------------------------------------------
A----------------------------------------------------
E----------------------------------------------------

Verso  01:05-01:25

e----13/15—12/15-------------------------------------
B----------------------------------------------------
G----------------------------------------------------      X6
D----------------------------------------------------
A----------------------------------------------------
E----------------------------------------------------

Coro  01:25-01:47

Guitarra 1
e----------------------------------------------------------
B----------------------------------------------------------
G---------------------------------------------------------- 
D-5-4-5--88-7-6--------------------------------------------
A-5-4-5--88-7-6---------------------------------------------
E-3-2-3--66-5-4---------------------------------------------

Guitarra 2                                                                            X8

e--------------------------------------------------------------
B-----11/12--------------------------------------------------
G------------------------------------------------------------- 
D-------------------------------------------------------------
A-------------------------------------------------------------
E--------------------------------------------------------------

Riff 01:47-02:06

e-----------------------------------------------------
B-----------------------------------------------------
G-----------------------------------------------------  
D-5-7-5----5678---5---575----5678565------------------
A-5-7-5----5678---5---575----5678565------------------
E-3-5-3----3456---3---343----3456343------------------

e------------------------------------------------
B------------------------------------------------
G------------------------------------------------  
D-568-565-575-5678-565—56785-565----------------
A-568-565-575-5678-565—56785-565----------------
E-346-343-345-3456-343-34563-343-----------------

Verse 02:06-02:28

Verso  01:05-01:25

e----13/15—12/15-----------------------------------------
B--------------------------------------------------------
G--------------------------------------------------------      X8
D--------------------------------------------------------
A--------------------------------------------------------
E--------------------------------------------------------

Coro 02:28-02:50

Guitarra 1
e---------------------------------------------------------
B---------------------------------------------------------
G--------------------------------------------------------- 
D-5-4-5--88-7-6-------------------------------------------
A-5-4-5--88-7-6-------------------------------------------
E-3-2-3--66-5-4-------------------------------------------

Guitarra 2                                                                            X8

e--------------------------------------------------------------
B-----11/12--------------------------------------------------
G------------------------------------------------------------- 
D-------------------------------------------------------------
A-------------------------------------------------------------
E--------------------------------------------------------------

Riff  02:55-03:17

e------------------------------------------------
B------------------------------------------------
G------------------------------------------------         X4
D-5-7-5----5678---5---575----5678565-------------
A-5-7-5----5678---5---575----5678565-------------
E-3-5-3----3456---3---343----3456343-------------

e-----------------------------------------------
B-----------------------------------------------
G-----------------------------------------------  
D-568-565-575-5678-565—56785-565----------------
A-568-565-575-5678-565—56785-565----------------
E-346-343-345-3456-343-34563-343--------------
		   
AcordesyTabs.com © 2008 Acordes y Tablaturas para guitarra. Tabs and Chords for guitar. Aviso Legal - Contacto
El uso de este sitio está sujeto a la aceptación de los términos y condiciones (11 usuarios online)