tablaturas, partituras y acordes para guitarra
Busca por banda/artista:
 
y/o título de la canción:
A B C D E F G H I J K L M N O P Q R S T U V W X Y Z 0 1 2 3 4 5 6 7 8 9 / Top 100 tabs
Categorías
Usuarios
usuario:
Darse de alta
password:
Artistas más visitados
Publicidad
TOP acordes y tablaturas de Zen


Sol
de Zen
Puntúa este acorde/tab:      
(0.7/5)
Reportar este acorde/tab
  Añadir a tus favoritos
  Imprimir
ZEN desenchufado 28 de junio 2007

Sol (Solo)

|--------------------------------------------|
|--7-7-7-8-5-5-5-7-3-3-3-3/5-3-2/3/2---------|
|------------------------------------4-4p2-2-|
|--------------------------------------------|
|--------------------------------------------|
|--------------------------------------------|


|------------------------------------------------------------|
|----------2-2-3-3-5-5-7-7-8-8-5-5-7-7-8-8/10-8-10-10/12-12--|
|--2-2-4-4---------------------------------------------------|
|------------------------------------------------------------|
|------------------------------------------------------------|
|------------------------------------------------------------|

Tocarlo escuchando la cancion

TeAmO PaMe


damitu_8@hotmail.com
01:34 p.m. 18/06/2008
		   
AcordesyTabs.com © 2008 Acordes y Tablaturas para guitarra. Tabs and Chords for guitar. Aviso Legal - Contacto
El uso de este sitio está sujeto a la aceptación de los términos y condiciones (45 usuarios online)