tablaturas, partituras y acordes para guitarra
Busca por banda/artista:
 
y/o título de la canción:
A B C D E F G H I J K L M N O P Q R S T U V W X Y Z 0 1 2 3 4 5 6 7 8 9 / Top 100 tabs
Categorías
Usuarios
usuario:
Darse de alta
password:
Artistas más visitados
Publicidad
TOP acordes y tablaturas de Attaque 77


Estás en: Inicio > Letra A > Acordes y tablaturas de Attaque 77 > Sola en la Cancha
Sola en la Cancha
de Attaque 77
Puntúa este acorde/tab:      
(1.1/5)
Reportar este acorde/tab
  Añadir a tus favoritos
  Imprimir
solo:

e-7-9-7-------5-7-9-9-7-7----7-7-7-----------------
B-5-----9-7-7-------------9-9-----9-10-10-10-12-12-
G--------------------------------------------------
D--------------------------------------------------
A--------------------------------------------------
E--------------------------------------------------


e------------------------------------------5-5-5-5-
B-12-9-9--------------------------9--------5-5-5-5-
G--------11-9-9-9-9-9-9-9-9-9-9-9---9-9-9----------
D--------------------------------------------------
A--------------------------------------------------
E--------------------------------------------------
		   
AcordesyTabs.com © 2008 Acordes y Tablaturas para guitarra. Tabs and Chords for guitar. Aviso Legal - Contacto
El uso de este sitio está sujeto a la aceptación de los términos y condiciones (32 usuarios online)