tablaturas, partituras y acordes para guitarra
Busca por banda/artista:
 
y/o título de la canción:
A B C D E F G H I J K L M N O P Q R S T U V W X Y Z 0 1 2 3 4 5 6 7 8 9 / Top 100 tabs
Categorías
Usuarios
usuario:
Darse de alta
password:
Artistas más visitados
Publicidad
TOP acordes y tablaturas de Paco Ibañez


Me llamarán
de Paco Ibañez
Puntúa este acorde/tab:      
(0.6/5)
Reportar este acorde/tab
  Añadir a tus favoritos
  Imprimir
ME LLAMARÁN

Letra: Blas de Otero
Música: Paco Ibáñez
Álbum: Paco Ibáñez 2
Transcripción: Unicornio (uniccornio@hotmail.com)


CEJILLA: Traste 1

Intro: (Creo que es un 4/4. Separo los compases)
---|7-5----|------|---------|---------|---------|-----|--|
5-5|5--5---|------|---------|---------|---------|-----|--|
2--|5---5-4|-2-0-0|2-42--0-2|4-54--2-0|2-42--0-2|4-54-|4-|
2--|5------|----3-|33--3--3-|33--3--3-|33--3--3-|33---|3-|
0--|7------|------|---------|---------|---------|-----|--|
---|-----0-|------|0----0---|-----0---|0----0---|-----|0-|

             A-9,5+
A)Me llamarán, nos llamarán a todos.
Tú, y tú, y yo, nos turnaremos,
   F
en tornos de cristal, ante la muerte.
          G7                    C
Y te expondrán, nos expondremos todos
         D-    E9-,4         A-    VI:0,5 V:3,2,0,2
a ser trizados ¡zas! por una bala.

            A-
B)Bien lo sabéis. Vendrán
    A-9             E-
por ti, por ti, por mí, por todos.
Y también
F
por ti.
(Aquí
               G7            C      II:5 V:0 I:5,8,7,5,7
no se salva ni dios. Lo asesinaron.)
	
           A-9
C)Escrito está. Tu nombre está ya listo,
   F                  G7  C
temblando en un papel. Aquel que dice:
              D-      E9-  F6      A-
abel, abel, abel... o yo, tú, él...

Final:
	----------------|----------------|----------------||
	----------------|5-3-------------|----------------||
	----2-5-4--24---|----2---2---4---|4---------------||
	--2-------------|-----------5----|----------------||
	0---------------|----------------|----------------||
	----------------|----------------|----------------||


ACORDES:

	A-9,5+:	x03400
	F:	133211
	G7:	323001
	C:	x32010
	D-:	xx0231
	E9-,4:	003400
	A-:	x02210
	A-9:	x02410
	E-:	022000
	E9-:	0231xx
	F6:	1302xx
		   
AcordesyTabs.com © 2008 Acordes y Tablaturas para guitarra. Tabs and Chords for guitar. Aviso Legal - Contacto
El uso de este sitio está sujeto a la aceptación de los términos y condiciones (16 usuarios online)