tablaturas, partituras y acordes para guitarra
Busca por banda/artista:
 
y/o título de la canción:
A B C D E F G H I J K L M N O P Q R S T U V W X Y Z 0 1 2 3 4 5 6 7 8 9 / Top 100 tabs
Categorías
Usuarios
usuario:
Darse de alta
password:
Artistas más visitados
Publicidad
TOP acordes y tablaturas de Estopa
:: Era - Estopa


Estás en: Inicio > Letra E > Acordes y tablaturas de Estopa > Melancolia
Melancolia
de Estopa
Puntúa este acorde/tab:      
(0.4/5)
Reportar este acorde/tab
  Añadir a tus favoritos
  Imprimir
/*Comienza como todas, con arpejio de Lam-Sol-Fa*/

e/--------------------------------------------------
B/-----1------3-1----1------3-1---------------------------
G/----2-2----2------2-2----2----------------------------
D/---2---2--2------2---2--2-------------------------------
A/--0------0------0------0-------------------------------
E/----------------------------------------------------

/*Y entra la voz*/

   Lam                  Sol     Fa
   Ahora ya no escribo cuentos, ni tacho los días del calendario
e/--------------------------------------------------
B/-----3------3/1------------------------------------
G/----2-2----2-------4-----4-----2-----2-----------------
D/---2---2--2-------5-5---5-5---3-3---3-3--------------------
A/--0------0-------5---5-5---5-3---3-3---3---------------------
E/----------------3-----3-----1-----1---------------------

   Lam7               Sol                  Fa                        Lam
            ni sueño que estoy preso a la sombra de un jardín vallado 
   
e/--------------------------------------------------
B/-----3------3/1------------------------------------
G/----2-2----2-------4-----4-----2-----2-----------------
D/---2---2--2-------5-5---5-5---3-3---3-3--------------------
A/--0------0-------5---5-5---5-3---3-3---3---------------------
E/----------------3-----3-----1-----1---------------------


/*Entra el rasgado de la segunda guitarra(cejilla)
 la primera guitarra sigue arpegiando
 {Doble tiempo de Lam}*/

Lam           Sol              
    ya no paseo por el mercado 
Fa                                  Lam
ni escucho lo que hablan unos viejos
      Sol                   Fa                      Lam
en un banco sentados, nunca más me sentaré con ellos
Sol                     Fa       Lam
Ahora me paso todas las tardes pensando
        Sol(+intenso)
 que el telefono no arde
       Fa                          Lam
que no suena, que no interrumpe la cena
       Fa                        Lam
que no arde, que me dice que me largue
       Fa                  Sol
que se muere sálvame tu si puedes.

/*Esta estrofa se toca igual que la anterior*/

No me susurran ya las fotografías
se apagaron los gritos de susilencio, de su melancolía.
Ya no más, ya no quiero más sueños
Sol                     Fa       Lam
Ahora me paso todas las tardes pensando
        Sol(+intenso)
 que el telefono no arde
       Fa                          Lam
que no suena, que no interrumpe la cena
       Fa                        Lam
que no arde, que me dice que me largue
       Fa                  Sol
que se muere sálvame tu si puedes.
                 Fa                      Sol
Si esque por no salir todas las puertas cierro
             Fa              Lam
y tengo la mañana solo para mi 
                Sol              Fa
se olvidaron de mi estos del infierno
              Sol(parón)
Y cuanto vale el precio...
                Fa                  Sol
No paran de llover las nubes del fracaso
              Fa              Lam
y para las pistolas de la soledad
                    Sol         Fa           Sol
ya no salgo en la guía ni en la calle de Olvidado,
                Fa                  Sol
Gritaré un poco mais sangrará mi garganta
                 Fa                   Sol           
la pared con mil huellas de mi loca cabeza
                   Fa         Sol          Fa     Sol
ahora no puedes entrar, estoy ordenando mi casa
 Fa           Sol
estoy ordenando mi casa iaiaiai
                   Fa                  Sol
Yo gritaré un poco mais sangrará mi garganta

                 Fa                   Sol           
la pared con mil huellas de mi loca cabeza
                   Fa         Sol          Lam
ahora no puedes entrar, estoy ordenando mi casa



/*El final no se si está muy clavado
escuchando la canción no es muy chungo
si sabes tocar esta ya las sabes todas de estopa*/

La música es uno de los pocos lugares dónde,  
hagan lo que hagan los que quieren apoderarse del mundo, 
nunca podran conquistar. 
Piensa, tu opinión es otro de esos lugares.
		   
AcordesyTabs.com © 2008 Acordes y Tablaturas para guitarra. Tabs and Chords for guitar. Aviso Legal - Contacto
El uso de este sitio está sujeto a la aceptación de los términos y condiciones (47 usuarios online)