tablaturas, partituras y acordes para guitarra
Busca por banda/artista:
 
y/o título de la canción:
A B C D E F G H I J K L M N O P Q R S T U V W X Y Z 0 1 2 3 4 5 6 7 8 9 / Top 100 tabs
Categorías
Usuarios
usuario:
Darse de alta
password:
Artistas más visitados
Publicidad
TOP acordes y tablaturas de Leusemia


Memorias
de Leusemia
Puntúa este acorde/tab:      
(0.2/5)
Reportar este acorde/tab
  Añadir a tus favoritos
  Imprimir
Una de las mejores canciones de Daniel F. Autobiográfica?
El F. toca con la afinación de 1/2 tono mas grueso, es decir bemol.

 Simbología:
 -10h12-  apretar el traste 12 mientras suena el 10
 -10s12-  arrastrar los dedos de un traste al otro
 -12~~-   mantener sonando la nota
 -12b~~-  estirar la cuerda

Intro:

   A   E               A          D     E           A
e--16~~-15-13----------------------13~~------------------
B-------------16-14-12-13~-14-16~~------16~-14~-13~------
G---------------------------------------------------13~~-
D--------------------------------------------------------
A--------------------------------------------------------
E--------------------------------------------------------

(Los acordes son los  mismos durante toda la canción)
A      E               A 
Me asome un cuatro de enero
A      E            A     A E D
hubo espanto en rededores
D           Dm           A     Fm#
el barrio estaba hecho rumores
D        E                   A     E
otro anticristo ha llegado señores

De pequeño estuve en las aulas
padecí muchos templos y dioses
termine asesinando esos dioses
y pateando profesores

Tuve miedo y estuve oculto
me pasaba el día soñando
necesitaba un abrazo
necesitaba un balazo

   A   E          A           E          A   A   E   D
e--------------------------------------------8-6-----------------
B------5s6~-4~------------6-8-9~-7h8-6-8-9~~-----9-8-6~~---------
G--5~~---------6~-6s8~~-8----------------------------------------
D----------------------------------------------------------------
A----------------------------------------------------------------
E----------------------------------------------------------------

   D   Dm      A   Fm#   D     E          A     E            A
e---------------------------------------------9-7s8-6~-----------
B--8-6-5~~-6-5-4~~-4s6~~---6-8-9~-7h8-6-8-9~~----------9-8-6-----
G------------------------8-----------------------------------8~~-
D----------------------------------------------------------------
A----------------------------------------------------------------
E----------------------------------------------------------------

Conocí lo que es el sexo
la pase mejor desde entonces
onanista a tiempo completo
siempre de día siempre de noche

La locura me dió un grán golpe
el sonido se hizo envolvente he he he
el rey rojo salió de su guarida
y las vacas despavoridas

Avandoné la escuela temprano
el rock and roll me dió mas leccione he he hes
lo que no supe en los salones
lo aprendí de canciones

   A     E        A         E            A   A     E        D
e--7s8~~-6b~~---------------5h6~-------------9-7s8-6~-----------
B-------------9-8-6~~-6-8-9------9-7s8-6-9~~----------9-8-6-----
G-----------------------------------------------------------8~~-
D---------------------------------------------------------------
A---------------------------------------------------------------
E---------------------------------------------------------------

   D Dm  A   Fm#  D      E          A    E               A
e------------------------------------------------6--------------
B--6~--------5s6~~---6-8-9~-7s8-6-8-9~---8---8-9---9-8-6-9~-----
G----9~~-8~~-------8-------------------8---8--------------------
D---------------------------------------------------------------
A---------------------------------------------------------------
E---------------------------------------------------------------

Con mi hermano hicimos un tango
nos burlamos de la hipocrecía ha ha ha
hartos de la rutina
y de los mismos huevones

(las 2 estrofas que siguen utiliza solo arpegios de las notas)
Una mañana del mes de octubre
aparecio una princesa en mi vida na na na
pura luz pura vida
y yo la quiero desde entonces

Nunca fuimos a un baile juntos
ni enfrentamos a esos dragones he he he
solo fuimos hacia la esquina
y miramos los mismos faroles

La ciudad ya perdio la cordura 
y yo buscando una calle engomada
la vida ofrece puertas de entrada
pero despues ya no tienes salida Fm#

D      Dm                A     Fm#
La esperanza es mierda colores
D           E             A
me llega al pincho esta rutina.

                                                               @(KyA)@
=======================================================================
NOTAS IMPORTANTES:
El intro en la canción original es tocado con armónica(creo), aca la
saqué con guitarra, pero las notas son las mismas.
(Sol#---Sol-Fa-Re#-Do#-Si-Do--Do#-Re#---Fa---Re#--Do#--Do--Sol#)

Los punteos estan hechos para una guitarra normalmente afinada, pero
si decidiste bajar medio tono a tu guitarra, no te preocupes, toca los
mismos punteos pero corriendo un traste a la derecha
(por ejemplo: 9~-7 ahora sería 10~-8, etc)

Esta canción esta acompañada por el organo. Pero como sé que la gente
de atame es mayormente ACÚSTICA, me tome la libertad de aumentar
algunos acordes mas a la canción para que suene bién vacan.   
Para comentar o rajar escribir a: antonio898@latinmail.com
=======================================================================
 ==================================================================
 Esta transcripción esta dedicada a los 'Camachitos': Julio, Edme,
         Guillermo, Victor, y claro a Alex (chaqueta), 
             LA GENTE PUNK-ROCKERA DE LA UNMSM...
 ==================================================================
		   
AcordesyTabs.com © 2008 Acordes y Tablaturas para guitarra. Tabs and Chords for guitar. Aviso Legal - Contacto
El uso de este sitio está sujeto a la aceptación de los términos y condiciones (26 usuarios online)