tablaturas, partituras y acordes para guitarra
Busca por banda/artista:
 
y/o título de la canción:
A B C D E F G H I J K L M N O P Q R S T U V W X Y Z 0 1 2 3 4 5 6 7 8 9 / Top 100 tabs
Categorías
Usuarios
usuario:
Darse de alta
password:
Artistas más visitados
Publicidad
TOP acordes y tablaturas de Guns N Roses


Estás en: Inicio > Letra G > Acordes y tablaturas de Guns N Roses > Paradise City
Paradise City
de Guns N Roses
Puntúa este acorde/tab:      
(0.6/5)
Reportar este acorde/tab
  Añadir a tus favoritos
  Imprimir
#----------------------------------PLEASE NOTE--------------------------------#
#This file is the author's own work and represents their interpretation of the#
#song. You may only use this file for private study, scholarship, or research.#
#-----------------------------------------------------------------------------#
#-- File created with Instab - http://www.pconline.com/~smcarey/instab.html --#
#-----------------------------------------------------------------------------#

Author/Artist: guns n roses
Title: paradise city
Album: apetite for destruction
Transcribed by: stephen cline
Email: axe_man_87@yahoo.com

-3-3-----3-----3----------------3-----3-----3--------------3------------------
-0---0-----0-----0---0--1---------1-----1-----1---1--1---1---1---1--1---------
-0-----0-----0-----0----0-----------0-----0-----0----0h2-------2----0---------
-0----------------------0h2---2----------------------0-3------------0h2-------
-2--------------------------3-------------------------------------------3-----
-3----------------------------------------------------------------------------
                                                                              

---3-----------3-----3---------------------|----------------------------------
-1---1---0-0-----0-----0-------0---0-------|----------------------------------
-------0---0-------0-------0h2---0-------0-|--x6------------------------------
-----------0-------------------------0h2---|----------------------------------
-----------2-------------------------------|----------------------------------
-----------3-------------------------------|----------------------------------
                                                                              

------------------------------------------------------------------------------
-------------------15----------------------------------15---------------------
-------12-12----------14b-14br-12----------12-12----------14b-14br-12---------
-12h14-------14-12----------------14-12h14-------14-12----------------14------
------------------------------------------------------------------------------
------------------------------------------------------------------------------
                                                                              

------------------------------------------------------------------------------
-13b-13b-13-------------------------------------------------------------------
------------14br-12----14b^^^^^^^^^^^^^^^-------------------------------------
--------------------14--------------------------------------------------------
------------------------------------------------------------------------------
------------------------------------------------------------------------------
 ending 1                                                                     

---------15-------------------------------------------------------------------
-13b-13b----13r-12brbrbrbrbr-12^^^^^^^^^^-------------------------------------
------------------------------------------------------------------------------
------------------------------------------------------------------------------
------------------------------------------------------------------------------
------------------------------------------------------------------------------
 ending 2                                                                     

------------------------------------|-----------------------------------------
------------------------------------|-----------------------------------------
----------------------------------3-|-----------------------------------------
-5--------5--------5--3--5--3--5--3-|-x2--------------------------------------
-5--3--4--5--3--4--5--3--5--3--5----|-----------------------------------------
------------------------------------|-----------------------------------------
 after the whistle             palm mute the above riff for the verses        

----------------------------|-------------------------------------------------
----------------------------|-------------------------------------------------
-4-----5-----2-----5-----4--|-------------------------------------------------
-5-----5-----3-----5-----5--|-x2----------------------------------------------
-5-----3-----3-----3-----5--|-------------------------------------------------
-3-----------1-----------3--|-------------------------------------------------
 chorus                                                                       

-------------------------------------------6------------5---------------------
---------------------------------------3-6----------------8----8--------------
---------3----------5b-3--3---5br-3-5b-------5b---r-3h4-----------------------
--3-3b-5---5--3-------------5-------------------------------------------------
-----------------5------------------------------------------------------------
------------------------------------------------------------------------------
 guitar solo                                                                  

---5-8------------------------------------------------|----3------------3-----
-8-----b8r-5-8----5-8---------------------------------|-5b---3---5b--5b---3---
---------------7b-----b7r-5---5-7---------------------|-5b-----3-5b--5b-----3-
----------------------------7-----5-7-----------------|-----------------------
--------------------------------------7-6-5-3-5br-3---|-----------------------
----------------------------------------------------5-|-----------------------
                                                                              

--------------|--10----------10-------10----------10-----8--------8--------8--
-5^^^^^^^-----|---------------------------------------------------------------
-5------5-----|*----12-10h11----10h11----12-10h11----8h9---10-8h9---10-8h9----
------------5-|*--------------------------------------------------------------
--------------|---------------------------------------------------------------
--------------|---------------------------------------------------------------
                                                                              

-------10----------10-------10----------10|-----8----------8-------8----------
------------------------------------------|-----------------------------------
-10h11----12-10h11----10h11----12-10h11---|8h11---12-10h11---10h11---12-------
------------------------------------------|-----------------------------------
------------------------------------------|-----------------------------------
------------------------------------------|-----------------------------------
                                           ending 1                           

-------8------|---8--------8--------6--6-|------------------------------------
--------------|---------------------6--6-|------------------------------------
-10h11---10-*-|-9---10-8h9---10-6h7------|------------------------------------
------------*-|--------------------------|------------------------------------
--------------|--------------------------|------------------------------------
--------------|--------------------------|------------------------------------
                ending 2                   listen to the recording to put     

------------------------------------------------------------------------------
------------------------------------------------------------------------------
------------------------------------------------------------------------------
------------------------------------------------------------------------------
------------------------------------------------------------------------------
------------------------------------------------------------------------------
 all of this together, there is no time in consideration so just play it by   

-----|------------------------------------------------------------------------
-----|------------------------------------------------------------------------
-----|-*------------------------------3b-5--3-4-5--3--4--5--3--5--3--5--3b--*-
-----|-*-5--3--4-5--3--4--5--3-5-3--5---------------------------------------*-
-----|------------------------------------------------------------------------
-----|------------------------------------------------------------------------
 ear   here is the double time riff after the drum role and the "hooooooome"  

------------------------------------------------------------------------------
------------------------------------------------------------------------------
------------------------------------------------------------------------------
------------------------------------------------------------------------------
------------------------------------------------------------------------------
------------------------------------------------------------------------------
 Slash plays a solo after the double time riff 4 times, so just have a        

------------------------------------------------------------------------------
------------------------------------------------------------------------------
------------------------------------------------------------------------------
------------------------------------------------------------------------------
------------------------------------------------------------------------------
------------------------------------------------------------------------------
 little fune then                                                             

		   
AcordesyTabs.com © 2008 Acordes y Tablaturas para guitarra. Tabs and Chords for guitar. Aviso Legal - Contacto
El uso de este sitio está sujeto a la aceptación de los términos y condiciones (29 usuarios online)