tablaturas, partituras y acordes para guitarra
Busca por banda/artista:
 
y/o título de la canción:
A B C D E F G H I J K L M N O P Q R S T U V W X Y Z 0 1 2 3 4 5 6 7 8 9 / Top 100 tabs
Categorías
Usuarios
usuario:
Darse de alta
password:
Artistas más visitados
Publicidad
TOP acordes y tablaturas de Sum 41


Estás en: Inicio > Letra S > Acordes y tablaturas de Sum 41 > In too deep solo
In too deep solo
de Sum 41
Puntúa este acorde/tab:      
(0.5/5)
Reportar este acorde/tab
  Añadir a tus favoritos
  Imprimir


e----------------------------------
B---9h10p9h10h12p10p9h10p9h10p9h10p9
G----------------------------------
D----------------------------------
A----------------------------------
E----------------------------------

PART 2

e----------------------------------
B--9--10---12--10--9------9--10----
G---------------------11-----------
D----------------------------------
A----------------------------------
E----------------------------------

PART 3

e-------------------------12h14--12  <LET
B--9--10---12--10--9-------------12  <RING
G---------------------11-----------
D----------------------------------
A----------------------------------
E----------------------------------

ORDER: PART 1
	 PART 2
	 PART 1
       PART 3




ANY COMMENTS TO: d396893@hotmail.com

		   
AcordesyTabs.com © 2008 Acordes y Tablaturas para guitarra. Tabs and Chords for guitar. Aviso Legal - Contacto
El uso de este sitio está sujeto a la aceptación de los términos y condiciones (46 usuarios online)