tablaturas, partituras y acordes para guitarra
Busca por banda/artista:
 
y/o título de la canción:
A B C D E F G H I J K L M N O P Q R S T U V W X Y Z 0 1 2 3 4 5 6 7 8 9 / Top 100 tabs
Categorías
Usuarios
usuario:
Darse de alta
password:
Artistas más visitados
Publicidad
TOP acordes y tablaturas de Attaque 77


Estás en: Inicio > Letra A > Acordes y tablaturas de Attaque 77 > Solo por placer
Solo por placer
de Attaque 77
Puntúa este acorde/tab:      
(0.7/5)
Reportar este acorde/tab
  Añadir a tus favoritos
  Imprimir
Intro:

e|--------------------------|
B|-------3-3-3--5-5-5--7-7-7|
G|4-4-4--4-4-4--5-5-5--7-7-7|
D|5-5-5---------------------| 
A|--------------------------|
E|--------------------------| 

    G5     B5      C5      D5
e|------|-------|-------|------|    
B|------|-------|-5-5-5-|-7-7-7|
G|4-4-4-|-4-4-4-|-5-5-5-|-7-7-7|  
D|5-5-5-|-4-4-4-|-------|------|
A|------|-------|-------|------|  
E|------|-------|-------|------|

e|------------------------------------------------------------
B|------------------------------------------------------------
G|9/11----9/11----9/11----------------------------------------
D|-----12------12------10--9-10-------------------------------
A|------------------------------12-10-9-10--9-10-12----9-10-12
E|--------------------------------------------------12--------
		   
AcordesyTabs.com © 2008 Acordes y Tablaturas para guitarra. Tabs and Chords for guitar. Aviso Legal - Contacto
El uso de este sitio está sujeto a la aceptación de los términos y condiciones (21 usuarios online)