tablaturas, partituras y acordes para guitarra
Busca por banda/artista:
 
y/o título de la canción:
A B C D E F G H I J K L M N O P Q R S T U V W X Y Z 0 1 2 3 4 5 6 7 8 9 / Top 100 tabs
Categorías
Usuarios
usuario:
Darse de alta
password:
Artistas más visitados
Publicidad
TOP acordes y tablaturas de Guns N Roses


Estás en: Inicio > Letra G > Acordes y tablaturas de Guns N Roses > Patience Solo
Patience Solo
de Guns N Roses
Puntúa este acorde/tab:      
(0.6/5)
Reportar este acorde/tab
  Añadir a tus favoritos
  Imprimir
album:guns n roses
title:patience solo
album:lies



this is the exact way this whole solo is done


----8/7-8-8/10-8-10/12---8/7-8-8/10-10/12-8/7-8-8/10-8--------------10/12-10-10-
-----------------------8-------------------------------10/12-10-8-8-------------
--------------------------------------------------------------------------------
--------------------------------------------------------------------------------
--------------------------------------------------------------------------------
--------------------------------------------------------------------------------



-----------------------------------------------^-----------^--------------------
-----5-8-------------------5-8-----------8/10-10-8-10---8-10-8-10---8-10-8-10/12
---7-----7-5-7---4-7-----7-----7-5-8-7/9--------------9-----------9-------------
---------------7-----7-5--------------------------------------------------------
--------------------------------------------------------------------------------
--------------------------------------------------------------------------------



--------------^---------------^-------------------------------------------------
--------------7-7-------------7-7-5-7----0-3------------------------------------
--4/2-----2-------4/2-----2----------7-2-0-2------------------------------------
------3/4---0---------3/4---0--------------0------------------------------------
--------------------------------------------------------------------------------
--------------------------------------------------------------------------------

     
                Well thats it enjoy it is very easy i can play it behind my head
		   
AcordesyTabs.com © 2008 Acordes y Tablaturas para guitarra. Tabs and Chords for guitar. Aviso Legal - Contacto
El uso de este sitio está sujeto a la aceptación de los términos y condiciones (9 usuarios online)