tablaturas, partituras y acordes para guitarra
Busca por banda/artista:
 
y/o título de la canción:
A B C D E F G H I J K L M N O P Q R S T U V W X Y Z 0 1 2 3 4 5 6 7 8 9 / Top 100 tabs
Categorías
Usuarios
usuario:
Darse de alta
password:
Artistas más visitados
Publicidad
TOP acordes y tablaturas de Enanitos Verdes


Estás en: Inicio > Letra E > Acordes y tablaturas de Enanitos Verdes > Sólo quiero estar contigo
Sólo quiero estar contigo
de Enanitos Verdes
Puntúa este acorde/tab:      
(0.3/5)
Reportar este acorde/tab
  Añadir a tus favoritos
  Imprimir
Este es el pequeño solo que lleva la cancion casi en la parte final.
Saludos a Normisha Vega y al Rubas.
Solo:

e----5-5-3-3-2-0---2-0-----------5-5-3-3-2-5-5~---------
B--3-------------3-----3/53~--3------------------------
G-------------------------------------------------------
D-------------------------------------------------------
A-------------------------------------------------------
E-------------------------------------------------------


e--14-14-15-14-12-10~-1210-14-14-12-10-7-10--5-3-2-0---
B-----------------------------------------------------3-
G-------------------------------------------------------
D-------------------------------------------------------
A-------------------------------------------------------
E-------------------------------------------------------
		   
AcordesyTabs.com © 2008 Acordes y Tablaturas para guitarra. Tabs and Chords for guitar. Aviso Legal - Contacto
El uso de este sitio está sujeto a la aceptación de los términos y condiciones (63 usuarios online)