tablaturas, partituras y acordes para guitarra
Busca por banda/artista:
 
y/o título de la canción:
A B C D E F G H I J K L M N O P Q R S T U V W X Y Z 0 1 2 3 4 5 6 7 8 9 / Top 100 tabs
Categorías
Usuarios
usuario:
Darse de alta
password:
Artistas más visitados
Publicidad
TOP acordes y tablaturas de Gob


Estás en: Inicio > Letra G > Acordes y tablaturas de Gob > Leave me alone
Leave me alone
de Gob
Puntúa este acorde/tab:      
(0.1/5)
Reportar este acorde/tab
  Añadir a tus favoritos
  Imprimir

------------------------------------------------------------------------------- 
LEAVE ME ALONE - Gob 
------------------------------------------------------------------------------- 

By:Brent Walker 

Intro Verse Bridge chorus 
D G D B D G B A D G B D G A D A G 
e|---------------|---------------------------|----------------------| 
B|---------------|---------------------------|----------------------| 
G|-7-----7--4----|-7-----4--------7-----4----|------------7---------| 
D|-7--5--7--4-4x-|-7--5--4--7--2x-7--5--4--7-|-5---7--3x--7--7--5---| 
A|-5--5--5--2----|-5--5--2--7-----5--5--2--7-|-5---7------5--7--5---| 
E|----3----------|----3-----5--------3-----5-|-3---5---------5--3---| 
p.m......... 

-------------------------------------------------------------------------------


		   
AcordesyTabs.com © 2008 Acordes y Tablaturas para guitarra. Tabs and Chords for guitar. Aviso Legal - Contacto
El uso de este sitio está sujeto a la aceptación de los términos y condiciones (43 usuarios online)