tablaturas, partituras y acordes para guitarra
Busca por banda/artista:
 
y/o título de la canción:
A B C D E F G H I J K L M N O P Q R S T U V W X Y Z 0 1 2 3 4 5 6 7 8 9 / Top 100 tabs
Categorías
Usuarios
usuario:
Darse de alta
password:
Artistas más visitados
Publicidad
TOP acordes y tablaturas de Green day


Estás en: Inicio > Letra G > Acordes y tablaturas de Green day > Only of you
Only of you
de Green day
Puntúa este acorde/tab:      
(0.3/5)
Reportar este acorde/tab
  Añadir a tus favoritos
  Imprimir

green day - only of you

h = hammer-on
p = pull-off
b = bend
/ = slide up
 = slide down
5 = power chord

Chorus (x4)
  F#5 A5 D5 B5
e|---------------------------------------------------------------|
B|---------------------------------------------------------------|
G|-------7--4----------------------------------------------------|
D|-4--7--7--4----------------------------------------------------|
A|-4--7--5--2----------------------------------------------------|
E|-2--5----------------------------------------------------------|

Verse (x6, lyrics start on third rep)
   A5   B5   D5   E5
e|---------------------------------------------------------------|
B|---------------------------------------------------------------|
G|-----------7----9----------------------------------------------|
D|-7----9----7----9----------------------------------------------|
A|-7----9----5----7----------------------------------------------|
E|-5----7--------------------------------------------------------|

Bridge (x4)
   B5   A5   F#5-E5 (listen to recording for exact strumming)
e|---------------------------------------------------------------|
B|---------------------------------------------------------------|
G|---------------------------------------------------------------|
D|-9----7----4-2-4-----------------------------------------------|
A|-9----7----4-2-4-----------------------------------------------|
E|-7----5----2-0-2-----------------------------------------------|

Solo (not tabbed yet)
e|---------------------------------------------------------------|
B|---------------------------------------------------------------|
G|---------------------------------------------------------------|
D|---------------------------------------------------------------|
A|---------------------------------------------------------------|
E|---------------------------------------------------------------|


Order

Chorus (no lyrics)
Verse 1
Chorus
Verse 2
Chorus
Bridge
Solo
Verse chords x6


Lyrics

I wish I could tell you
But the words would come out wrong
But oh if you only knew
The way I've felt for so long		(Verse 1)
I know that we're worlds apart
But I just don't seem to care
These feelings in my heart
Only with you I want to share

The first time I caught
A glimpse of you			(Chorus)
Then all my thoughts
Were only of you

I hope that when time goes by
You will think the same about me
Many nights awake I lie
I only wish that you could see
I know that we're only friends		(Verse 2)
I hope this feeling never ends
If I could only hold you
It's the only thing I wanna do

(Chorus)
(Bridge)
(Solo)



		   
AcordesyTabs.com © 2008 Acordes y Tablaturas para guitarra. Tabs and Chords for guitar. Aviso Legal - Contacto
El uso de este sitio está sujeto a la aceptación de los términos y condiciones (17 usuarios online)