tablaturas, partituras y acordes para guitarra
Busca por banda/artista:
 
y/o título de la canción:
A B C D E F G H I J K L M N O P Q R S T U V W X Y Z 0 1 2 3 4 5 6 7 8 9 / Top 100 tabs
Categorías
Usuarios
usuario:
Darse de alta
password:
Artistas más visitados
Publicidad
TOP acordes y tablaturas de Guns N Roses


Estás en: Inicio > Letra G > Acordes y tablaturas de Guns N Roses > Sweet Child O Mine
Sweet Child O Mine
de Guns N Roses
Puntúa este acorde/tab:      
(1.4/5)
Reportar este acorde/tab
  Añadir a tus favoritos
  Imprimir
Sweet Child o Mine... Guns n Roses
Tabbed by: Saad Naqvi (saadnaqvi@email.com) 

e|-----------------15------14------|-----------------15------14--------
b|------15-------------------------|------15---------------------------
g|---------14--12------14------14--|---------14--12------14------14----
d|--12-----------------------------|--14-------------------------------
a|---------------------------------|-----------------------------------
E|---------------------------------|-----------------------------------

This is repeated quite a number of times, even when the drums start.
Just before the vocals start, the intro in ended by the following notes:

e|---15--14--12--14-------
b|------------------------     (listen to the song for the exact
g|------------------------      tune and timing... its quite easy) 
d|------------------------
a|------------------------
E|------------------------

lyrics start: "she's got smile, that it seems to me..."
		   
AcordesyTabs.com © 2008 Acordes y Tablaturas para guitarra. Tabs and Chords for guitar. Aviso Legal - Contacto
El uso de este sitio está sujeto a la aceptación de los términos y condiciones (20 usuarios online)