tablaturas, partituras y acordes para guitarra
Busca por banda/artista:
 
y/o título de la canción:
A B C D E F G H I J K L M N O P Q R S T U V W X Y Z 0 1 2 3 4 5 6 7 8 9 / Top 100 tabs
Categorías
Usuarios
usuario:
Darse de alta
password:
Artistas más visitados
Publicidad
TOP acordes y tablaturas de Guns N Roses


Estás en: Inicio > Letra G > Acordes y tablaturas de Guns N Roses > Welcome To The Jungle Intro
Welcome To The Jungle Intro
de Guns N Roses
Puntúa este acorde/tab:      
(0.8/5)
Reportar este acorde/tab
  Añadir a tus favoritos
  Imprimir


Seen Alot of Efforts at the Intro to this but this is the correct version of It

Tune Down Half Step

-----------------------------|
-----------------------------|
------------44----444--------|
-----------------------------|
-----------------------------|
-----------------------------|


------------------------------------
------------------------------------
------------44----22----------------
-----------------------44----220----
----------------------------------2-
------------------------------------ 

Do This 8 Times

Any Comments Or Questions E-mail me at abailieuk@hotmail.com
Have Fun it really not that difficult.
		   
AcordesyTabs.com © 2008 Acordes y Tablaturas para guitarra. Tabs and Chords for guitar. Aviso Legal - Contacto
El uso de este sitio está sujeto a la aceptación de los términos y condiciones (37 usuarios online)