tablaturas, partituras y acordes para guitarra
Busca por banda/artista:
 
y/o título de la canción:
A B C D E F G H I J K L M N O P Q R S T U V W X Y Z 0 1 2 3 4 5 6 7 8 9 / Top 100 tabs
Categorías
Usuarios
usuario:
Darse de alta
password:
Artistas más visitados
Publicidad
TOP acordes y tablaturas de Guns N Roses


Estás en: Inicio > Letra G > Acordes y tablaturas de Guns N Roses > Welcome To The Jungle
Welcome To The Jungle
de Guns N Roses
Puntúa este acorde/tab:      
(1.3/5)
Reportar este acorde/tab
  Añadir a tus favoritos
  Imprimir
Ok this is a more correct way to play the intro to Welcome to the Jungle. I tabb

Thick distortion
Set treble and midrange high, cut the bass frequencies
Tons of Reverb

eb----------------------------------------------------------|
Bb----------------------------------------------------------|
Gb-4--4-4-4---4--4-4-4-4---4--4-4-2-4-2---4-----4-----4-----|
Db--------------------------------------4---4-2---2-0---0-2-|
Ab----------------------------------------------------------|
Eb----------------------------------------------------------|
      x x x      x x x x
    (mute)

Lead Riff played over previous riff:

eb------------------------------------------------|
Bb--------3-5-5^-3----5-3-3------------------3----|
Gb-4----4-------------------4----4------4---------|
Db---------------------------------2--------------|
Ab------------------------------------------------|
Eb------------------------------------------------|

then the power chords

D  A  B, hang on the B until the main riff breaks in:

Db-4-4-4-----------|
Ab-2-2-2-----------|
Eb-------33-22-1-0-|

                   "Welcome to the Jungle..."

Tabbed By Daniel W.
ESPguitars
		   
AcordesyTabs.com © 2008 Acordes y Tablaturas para guitarra. Tabs and Chords for guitar. Aviso Legal - Contacto
El uso de este sitio está sujeto a la aceptación de los términos y condiciones (38 usuarios online)