tablaturas, partituras y acordes para guitarra
Busca por banda/artista:
 
y/o título de la canción:
A B C D E F G H I J K L M N O P Q R S T U V W X Y Z 0 1 2 3 4 5 6 7 8 9 / Top 100 tabs
Categorías
Usuarios
usuario:
Darse de alta
password:
Artistas más visitados
Publicidad
TOP acordes y tablaturas de Green day


Estás en: Inicio > Letra G > Acordes y tablaturas de Green day > Only of you
Only of you
de Green day
Puntúa este acorde/tab:      
(0.2/5)
Reportar este acorde/tab
  Añadir a tus favoritos
  Imprimir

Group: Green Day
Album: 1039/smoothed out slappy hours
Title: only of you

/  - slide

intro/chorus

|---------------------|
|---------------------|
|-----74-4-4-4-4-4-4-|
|-3-5-74-4-4-4-4-4-4-|
|-3-5-52-2-2-2-2-2-2-|
|-1-3-----------------|

verse

|---------------------------------------------------|
|---------------------------------------------------|
|-----------4-4-4-4-4-4-4-7-7-7-7-7-9-9-9-9-9-9-9-9-|
|-7-7-7-7-7-4-4-4-4-4-4-4-7-7-7-7-7-9-9-9-9-9-9-9-9-|
|-7-7-7-7-7-2-2-2-2-2-2-2-5-5-5-5-5-7-7-7-7-7-7-7-7-|
|-5-5-5-5-5-----------------------------------------|

bridge 

|--------------------------------------------|
|--------------------------------------------|
|-4-4-4-4-4----------------------------------|
|-4-4-4-4-4-7-7-7-7-7-7-7--4-2-4-2-4-4-2-4-2-|
|-2-2-2-2-2-7-7-7-7-7-7-7--4-2-4-2-4-4-2-4-2-|
|-----------5-5-5-5-5-5-5--2-0-2-0-2-2-0-2-0-|

outro

|---|
|---|
|---|
|-7-|
|-7-|
|-5-|


		   
AcordesyTabs.com © 2008 Acordes y Tablaturas para guitarra. Tabs and Chords for guitar. Aviso Legal - Contacto
El uso de este sitio está sujeto a la aceptación de los términos y condiciones (28 usuarios online)