tablaturas, partituras y acordes para guitarra
Busca por banda/artista:
 
y/o título de la canción:
A B C D E F G H I J K L M N O P Q R S T U V W X Y Z 0 1 2 3 4 5 6 7 8 9 / Top 100 tabs
Categorías
Usuarios
usuario:
Darse de alta
password:
Artistas más visitados
Publicidad
TOP acordes y tablaturas de los Tres


Estás en: Inicio > Letra l > Acordes y tablaturas de los Tres > Somos tontos no pesados
Somos tontos no pesados
de los Tres
Puntúa este acorde/tab:      
(0.4/5)
Reportar este acorde/tab
  Añadir a tus favoritos
  Imprimir
Compañeros... esta version es la del disco (no se como se llama pero parece que Los Tres
y esta es la primera....

en esta cada uno se manda un pequeño solo ... el bajo esta incluido ...

Intro:
G |-------------------------------------------------------------------
D |-------------------------------------------------------------------
A |--3--03--03--03----------------------------------------------------
E |-------------------------------------------------------------------

verso.1 
G |-------------------------------------------------------------------
D |-------------------------------------------------------------------
A |-5-3-00-3-0-34----5-3-00-3-0-34----5-3-00-3-0-34-----5-3-00-3-0-3--
E |-------------------------------------------------------------------

G |-1-1-1-1-14--------------------------------------------------------
D |-------------------------------------------------------------------
A |-------------------------------------------------------------------
E |-------------------------------------------------------------------

Verso.2
G |---------2-1-3--------------------------2-1-3----------------------
D |-----3-4----------------------------3-4----------------------------
A |-3-3-----------3-3-0-3-4-3-0----3-3-----------3-3-0-3--------------
E |-------------------------------------------------------------------
    
Somos tontos no pesados (mini solo Titae) 

G |-----------------2-1-3-------1-1-1-14------------------------------    
D |-------------3-4---------------------------------------------------    
A |---0-1-2-3-3-----------3-3-3---------------------------------------    
E |-------------------------------------------------------------------    
								

gracias por todo y ...... y gracias por todo ...

hasta pronto muchachos... hasta pronto...
		   
AcordesyTabs.com © 2008 Acordes y Tablaturas para guitarra. Tabs and Chords for guitar. Aviso Legal - Contacto
El uso de este sitio está sujeto a la aceptación de los términos y condiciones (26 usuarios online)