tablaturas, partituras y acordes para guitarra
Busca por banda/artista:
 
y/o título de la canción:
A B C D E F G H I J K L M N O P Q R S T U V W X Y Z 0 1 2 3 4 5 6 7 8 9 / Top 100 tabs
Categorías
Usuarios
usuario:
Darse de alta
password:
Artistas más visitados
Publicidad
TOP acordes y tablaturas de los Tres


Estás en: Inicio > Letra l > Acordes y tablaturas de los Tres > Somos tontos no pesados
Somos tontos no pesados
de los Tres
Puntúa este acorde/tab:      
(0.7/5)
Reportar este acorde/tab
  Añadir a tus favoritos
  Imprimir
Yap, aquí mando una corrección del bajo de 'Somos Tontos no pesados'
que ya estaba en el ATAME. Esta es la correcta (creo). En todo caso, 
cualquier error, duda o sugerencia pa' mi mail. Suerte!!!!!!!!!!!!!

Intro:
G |---------------------|
D |---------------------|
A |--3--33--33--33------|
E |---------------------|


Verso:
 
G|-----------------------------------------------------|
D|--5--3--0------------------5--3--0-------------------|
A|-----------3-----1--3--1------------3--1--3--1-------|
E|--------------3--------------------------------------|


G|-----------------------------------------------------|
D|--5--3--0------------------5--3--0-------------------|
A|-----------3-----1--3--1------------3--1-------------|
E|--------------3--------------------------------------|


Interludio:

G|------------------------------------------------------------------------|
D|--------------------0-------------------------------------0-------------|
A|--33------1------1-----33-----1-----1-----33-----1-----1-----33-----1---|
E|-------3-----3-------------3-----3-----3------3-----3------------3------|


Solo:

G|--------------------5-4---------2-2-2-2/3----|    
D|----------------5-4-----5--------------------|    
A|-----1-----3-3-------------3-3---------------|    
E|--3-----3------------------------------------|    

								
Luego del solo sube un tono:

G|------------------------6-5----------------------------|    
D|--0----------2-0--7-6-------7---0----------2-0---------|    
A|-----03--03------------------------03--03-------0-3----|    
E|-------------------------------------------------------|    


Solo de Guitarra. Nuevamente sube un tono:

G|--------------------------7-6--------------------------------|    
D|--2----0----0--4-2---9-8-------8--2----0----0--4-2----0------|    
A|-----2----2--------------------------2----2---------2--------|    
E|-------------------------------------------------------------|


Solo de Batería. Luego de éste vuelven al tono original, haciendo
el Interludio:

G|------------------------------------------------------------------------|
D|--------------------0-------------------------------------0-------------|
A|--33------1------1-----33-----1-----1-----33-----1-----1-----33-----1---|
E|-------3-----3-------------3-----3-----3------3-----3------------3------|


Solo de Guitarra. Luego de éste vuelven a hacer lo mismo de siempre:

G|-----------------------------------------------------|
D|--5--3--0------------------5--3--0-------------------|
A|-----------3-----1--3--1------------3--1--3--1-------|
E|--------------3--------------------------------------|


G|-----------------------------------------------------|
D|--5--3--0------------------5--3--0-------------------|
A|-----------3-----1--3--1------------3--1-------------|
E|--------------3--------------------------------------|



Y ESO SERÍA TODO!!!!!!!!!! POr lo pronto mando eso. Ya voy a mandar
la tablatura pa' la guitarra. Por ahora PACIENCIA. 

P.D: MANDEN MÁS COSAS DE LOS TR3S, PO', SI ES UNO DE LOS MEJORES GRUPOS 
     NACIONALES. 
     HAY QUE PREFERIR EL PRODUCTO NACIONAL. SUERTE!!!!!!!!!
		   
AcordesyTabs.com © 2008 Acordes y Tablaturas para guitarra. Tabs and Chords for guitar. Aviso Legal - Contacto
El uso de este sitio está sujeto a la aceptación de los términos y condiciones (28 usuarios online)