tablaturas, partituras y acordes para guitarra
Busca por banda/artista:
 
y/o título de la canción:
A B C D E F G H I J K L M N O P Q R S T U V W X Y Z 0 1 2 3 4 5 6 7 8 9 / Top 100 tabs
Categorías
Usuarios
usuario:
Darse de alta
password:
Artistas más visitados
Publicidad
TOP acordes y tablaturas de Rojo


Estás en: Inicio > Letra R > Acordes y tablaturas de Rojo > Soy tuyo hoy
Soy tuyo hoy
de Rojo
Puntúa este acorde/tab:      
(0.2/5)
Reportar este acorde/tab
  Añadir a tus favoritos
  Imprimir
Rekinto
--------------------------------------------------
--------------------------------------------------
--------------------------------------------------
-3-2---3-2---3-2----------------------------------
----0------0-----0--------------------------------
--------------------------------------------------
Lam                    Mi
Junto a ti es donde yo quiero estar
             Rem          Mi       Lam   
 en lo mas secreto de tus alas habitar
Lam                  MI
Nada mas tiene valor para mi
           Rem          Mi           Lam
 anhelo adorarte y entregarme todo a ti
   Rem         Sol        Mi       Lam
Lo que soñaste para mi yo quiero hacer
  Rem           SOl          Mi
 Existo  para estar cerca de ti


              CORO
Lam       Do  Rem           Mi   Lam                      
Te amo y quiero  darte mis sueños
        Do Rem        Mi
Me desespero si no te veo
   Lam       Rem          Sol
y Seré     esclavo de tu amor,
 MI          Lam  
amante de tu voz,
   Rem        Mi            Lam
te doy mi corazón, soy tuyo hoy


Rekinto
--------------------------------------------------
--------------------------------------------------
--------------------------------------------------
-3-2---3-2---3-2----------------------------------
----0------0-----0--------------------------------
-------------------------------------------------

Lam                   Mi
Solo en ti esta mi razón de ser
           Rem         Mi          Lam   
lo que mas quiero es poderte contemplar
   Lam                   Mi
Tu palpitar me muero por escuchar 
           Rem             MI           Lam
te buscare siempre como un río busca el mar
   Rem           Sol          Mi         Lam
Yo quiero estar atado con tus cuerdas de amor
    Rem         SOl             MI
 respiro para estar muy junto a ti

              CORO
Lam       Do  Rem           Mi   Lam                      
Te amo y quiero  darte mis sueños
        Do Rem        Mi
Me desespero si no te veo
   Lam       Rem          Sol
y Seré     esclavo de tu amor,
 MI          Lam  
amante de tu voz,
   Rem        Mi         
te doy mi corazón, soy tuyo hoy  
 
Fa          Re           Fa    Re   
Con mi vida cantare a tu trono llegare 
    Do                Mi          Lam   Re
Mi adoración por ti jamas nadie podra callar

   Lam       Rem          Sol
y Seré     esclavo de tu amor,
 MI          Lam  
amante de tu voz,
   Rem        Mi         
te doy mi corazón, soy tuyo hoy

Lam       Do  Rem           Mi   Lam                      
Te amo y quiero  darte mis sueños
        Do Rem        Mi
Me desespero si no te veo
   Lam       Rem          Sol
y Seré     esclavo de tu amor,
 MI          Lam  
amante de tu voz,
   Rem        Mi         
te doy mi corazón, soy tuyo hoy 

Rekinto
--------------------------------------------------
--------------------------------------------------
--------------------------------------------------
-3-2---3-2---3-2----------------------------------
----0------0-----0--------------------------------
--------------------------------------------------
		   
AcordesyTabs.com © 2008 Acordes y Tablaturas para guitarra. Tabs and Chords for guitar. Aviso Legal - Contacto
El uso de este sitio está sujeto a la aceptación de los términos y condiciones (23 usuarios online)