tablaturas, partituras y acordes para guitarra
Busca por banda/artista:
 
y/o título de la canción:
A B C D E F G H I J K L M N O P Q R S T U V W X Y Z 0 1 2 3 4 5 6 7 8 9 / Top 100 tabs
Categorías
Usuarios
usuario:
Darse de alta
password:
Artistas más visitados
Publicidad
TOP acordes y tablaturas de Divididos


Estás en: Inicio > Letra D > Acordes y tablaturas de Divididos > Spaghetti del rock
Spaghetti del rock
de Divididos
Puntúa este acorde/tab:      
(0.2/5)
Reportar este acorde/tab
  Añadir a tus favoritos
  Imprimir
Introducción
e|--------------------------------------------------|
B|------3--2--3---3------3-----3---3-------2--3-----|
G|------2--2--2---2------2-----4---4-------2--2-----|
D|----0----------------------------------2----------|
A|--------------3---3--1---------------1------------|
E|--0---------------------0--5---5---5-----------2--|

Estrofa 1
e|------------------------------------------------------------|
B|------3--2--3-0----3---------------0---0------2---3--2------|
G|------2--2--2----------------------2---2------2---2--2------|
D|----0------------------------5--0----0-----------------2p0--|
A|--------------3--3---3--1--1-------------1--1---1-----------|
E|--0---------------------------------------------------------|

e|-------------------------------------------0--0--0------|
B|------3--2--3-----3---3--3-----3-----------3--3--2------|
G|------2--2--2-----2---2--2-----0--4--4---2--------------|
D|----0-----------0------------0----5--5-------------2p0--|
A|--------------3-----3------------------1----------------|
E|--0------------------------5----------------------------|

e|------------------------------------------------------------------|
B|---------3--2--3---3----3--2------0---3------------2---3--2--2h3--|
G|------2--2--2--2---2----2--2------4---4--4--0--2---2---2--2--2-2--|
D|----0------------------------5--0---5------------2---2------------|
A|-----------------3---3--1-----------------------------------------|
E|--0---------------------------------------------------------------|

e|------------------------------------------------0---------|
B|------3--2--3-----3---3---------3------3--2--2--3--2------|
G|------2--2--2-----2---2------4--4---4--4--2--2-------2----|
D|----0-----------0-------0--5------5--------------------2--|
A|--------------3-----3-------------------------------------|
E|--0-------------------------------------------------------|

e|-------------------------------|-------------------------------|
B|------3-------3-----2-------2--|------3-------3-----2-------2--|
G|------4-------4-----2-------2--|------4-------4-----2-------2--|
D|----0---0---0-----2---2---2----|----0---0---0-----2---2---2----|
A|----------------1-------1------|----------------1-------1------|
E|--5-------5--------------------|--5-------5--------------------|

e|------------------------------------------------------||
B|------3-------3-----2-----0-----------3----3-------3--||
G|------4-------4-----2-----0-------2---2h4--2--4s2-----||
D|----0---0---0-----2-----0---0---0---4--------------0--||
A|----------------1-------------------------------------||
E|--5-------5-----------5-------0-----------------------||

Estrofa 2
e|------------------------------------------------0---------|
B|-----------3--2--3---3--3--2-----0--3-------2---3--2------|
G|---------2----2--2---2--2--2-----0----4-----2--------2----|
D|-------------------------------0----------2---2--------2--|
A|-------------------3--------------------1-----------------|
E|--7s0--0---------------------5----------------------------|

e|---------------------------------------------------------|
B|------3--2--3------3---3--3-----3-----3-----3---2--------|
G|------2--2--2------0---0--0--3--0-----0-----2---2--------|
D|----0---------0--0-----------4------0-----2---2---2------|
A|--------------3--3---3------------------1-----------1----|
E|--0-------------------------------5-------------------0--|

e|--------------------------------------------------------|
B|--0---3-------3-----2-----2-------3-------3-----2--2----|
G|--0---4-------4-----2-----2-------4-------4-----2--2----|
D|----0---0---0-----2-----2---2---0---0---0-----2---------|
A|----------------1-----1---------------------1--------1--|
E|--5-------5-------------------5-------5-----------------|

e|------------------------------------------------------||
B|------3-------3-----2-----------------3----3-------3--||
G|------4-------4-----2-----4-------2---2h4--2--4s2-----||
D|----0---0---0-----2-----0-------0---4--------------0--||
A|----------------1-------------------------------------||
E|--5-------5-----------5-------0-----------------------||

Estrofa 3
e|--------------------------0------0----------------------------------|
B|-------------3---3--3--3--3--2-----3-------------3-------3-------3--|
G|-------------4---4--4--4-------2-----0--2--0-----4-------4-------3--|
D|--4--2--0--4---4----4--4-----------------------0---0---0---0---0----|
A|--------3-----------------------------------------------------------|
E|---------------------------------------------5-------5-------5------|

e|------------------------------0-----0---------------------2---2---2--|
B|----3--3---3---3---3---3------3--0---------3-----3-------------------|
G|----2--2---4---4---4---4---------2---------4-----4--------2---2---2--|
D|---------4---4---4---4--------------2----0-----0--------4---4---4----|
A|-------------------------1--1----------------------------------------|
E|--4------------------------------------5-----5-----5--4--------------|

e|--------------------2---2-----------------------------------|
B|------3-------3-----2---2--2-------3-------3-----2-----0----|
G|------4-------4------------2-------4-------4-----2-----0----|
D|----0---0---0-----4---4------4---0---0---0-----2-----0---0--|
A|---------------------------------------------1--------------|
E|--5-------5-----4--------------5-------5-----------5--------|

e|--------------------------||
B|----------3----3-------3--||
G|------2---2h4--2--4s2-----||
D|----0---4--------------0--||
A|--------------------------||
E|--0-----------------------||

Solo
e|----------------------------------3--2----------------------------|
B|----------------3--3--3h5--3-----------3--3h5--3---------3--5--3--|
G|--------------2-------2----2---2--2--2----2----2--5------4--5--4--|
D|-------0--2s4----------------4----------------------5--0----------|
A|--1--3------------------------------------------------------------|
E|------------------------------------------------------------------|

e|----------------------------------------------------5s10--|
B|-------2--3--2------------------------------3s10-10-------|
G|---------------2--0---------------------------------------|
D|--5--0----4-------------------5s7--7s12--12---------------|
A|-------------------------5--6-----------------------------|
E|--------------------5--7----------------------------------|

e|--7p5---------------------||
B|------7p5--------------3--||
G|----------7p4----------5--||
D|--------------7p4--2p0----||
A|-----------------------4--||
E|--------------------------||

Estrofa 4
e|------------------------------------------0--|
B|-----------------2--3-----------3---3-----3--|
G|-------5--4------2-----2--------4---4--------|
D|--0--0----0---------4--0------0---------2----|
A|---------------1----------------------1------|
E|--5--5----5--5-----------0--5-----5----------|

e|------------0-----------0-----7--3--3---------------0----------|
B|--2--2--3---3-----3--3-----3--7--3--3--3---3--3-----3-----0----|
G|--2--2--------4---4--4--2--2--6--4--4--4---4--4-----------4----|
D|----------5---5---5--5--------7--5--5----5--------0-----0---0--|
A|------------------------1-----5--3--3-----------1--------------|
E|----------5-----0-------------7--5--5-----------------5--------|

e|--------------------------||
B|----------3----3-------3--||
G|------2---2h4--2--4s2-----||
D|----0---4--------------0--||
A|--------------------------||
E|--0-----------------------||

Estrofa 5
e|-----------------------0-----0--0--0------3----3--3----------3----------|
B|--------3-----3-----3--3--3--3--3--3------3----3--3-------2--3----------|
G|--------4-----4-----4--4--4--4--4---------4----4----------3-------------|
D|--4--4--4--4--4--4--4--2-----2--2----5--5---5--5----5--5--4----5--5--5--|
A|--6--6--3-----3-----3----------------3--3---3--3----3--3--2----3--3--3--|
E|-------------------------------------5--5---5--5----5--5--4----5--5--5--|

e|--2--2-----------------------------3--3--3-----------3-----------------|
B|--2--2--3--3--3--3--3--3--3--------3--3--3-----------3-----------------|
G|--3--3--4--4--4--4--4--4--4--------4--4--4--4--4--4--4-----------4--4--|
D|--4--4--4--4--4--4--4--4--4--5--5--5--5--5--5--5--5--5--5--5--5--5--5--|
A|--2--2--3--3--3--3--3--3--3--3--3--3--3--3--3--3--3--3--3--3--3--3--3--|
E|--4--4-----------------------5--5--5--5--5--5--5--5--5--5--5--5--5--5--|

e|--3-----------3--2--2--2--2--2--2--2--2--2--2--2--2--2--2--2--2--|
B|--3-----------3--2--2--2--2--2--2--2--2--2--2--2--2--2--2--2--2--|
G|--4--4--4--4--4--3--3--3--3--3--3--3--4--4--4--4--4--4--4--4--4--|
D|--5--5--5--5--5--4--4--4--4--4--4--4--5--5--5--5--5--5--5--5--5--|
A|--3--3--3--3--3--2--2--2--2--2--2--2--3--3--3--3--3--3--3--3--3--|
E|--5--5--5--5--5--4--4--4--4--4--4--4--5--5--5--5--5--5--5--5--5--|

e|--2--2--2--2--2--2--2--2--2--2--2--2--3--3--3--3--3--3--3--5--5--|
B|--2--2--2--2--2--2--2--2--2--2--2--2--3--3--3--3--3--3--3--5--5--|
G|--3--3--3--3--3--3--3--3--3--3--3--3--4--4--4--4--4--4--4--6--6--|
D|--4--4--4--4--4--4--4--4--4--4--4--4--5--5--5--5--5--5--5--7--7--|
A|--2--2--2--2--2--2--2--2--2--2--2--2--3--3--3--3--3--3--3--5--5--|
E|--4--4--4--4--4--4--4--4--4--4--4--4--5--5--5--5--5--5--5--7--7--|

e|--3--3--3--2--2--0--2--0--2--||
B|--3--3--3--3--3--3--3--3--3--||
G|--4--4--4--2--2--0--2--0--2--||
D|--5--5--5--4--4--2--4--2--0--||
A|--3--3--3--------------------||
E|--5--5--5--------------------||  Fin

(Afinar la 6ta en D y la 5ta en Ab)

-----------------------------------------------------------------------------------------------
La verdadera versión la toca Mollo con una bandurria, pero las notas son básicamente las mismas.
Si alguien quiere escribirme puede hacerlo a rockamorir@hotmail.com
-----------------------------------------------------------------------------------------------
		   
AcordesyTabs.com © 2008 Acordes y Tablaturas para guitarra. Tabs and Chords for guitar. Aviso Legal - Contacto
El uso de este sitio está sujeto a la aceptación de los términos y condiciones (67 usuarios online)