tablaturas, partituras y acordes para guitarra
Busca por banda/artista:
 
y/o título de la canción:
A B C D E F G H I J K L M N O P Q R S T U V W X Y Z 0 1 2 3 4 5 6 7 8 9 / Top 100 tabs
Categorías
Usuarios
usuario:
Darse de alta
password:
Artistas más visitados
Publicidad
TOP acordes y tablaturas de Basca


Sucesor
de Basca
Puntúa este acorde/tab:      
(0.8/5)
Reportar este acorde/tab
  Añadir a tus favoritos
  Imprimir
Saludos metaleros, Ya estoy cansado de los malos tabs
 en especial el de sucesor que no tiene nada que ver 
con la cancion original, no se realmente que han 
querido hacer esos tipos pero bueno... aqui otra
 excelente cancion de este excelente grupo.

 _____       ___   _____   _____       ___  
|  _       /   | /  ___/ /  ___|     /   | 
| |_| |    / /| | | |___  | |        / /| | 
|  _  {   / / | | \___   | |       / / | | 
| |_| |  / /  | |  ___| | | |___   / /  | | 
|_____/ /_/   |_| /_____/ \_____| /_/   |_| 
Gabriel Sanchez L. (rockerguitar@hotmail.com)

                                     
  __        __   ___    __  __   __  
__)  (__(_ (___ (__/_ __)  (__) |  ' 
                                     

INTRO

E-------------------------------------------
B-------------------------------------------
G-------------------------------------------
D-------9-------10-------9------------------
A-------7-------8--------7--10-9-7----------
E-0-0-0---0-0-0----0-0-0-----------10-8-7---                              


E-------------------------------------------
B-------------------------------------------
G-------------------------------------------
D-------9-------10-------9---7----7-5-4-----
A-------7-------8--------7---5----5-3-2-----
E-0-0-0---0-0-0----0-0-0--------------------                                            


E-------------------------------------------
B-------------------------------------------
G-------------------------------------------
D-------9-------10-------9------------------
A-------7-------8--------7--10-9-7----------
E-0-0-0---0-0-0----0-0-0-----------10-8-7---                              


E-------------------------------------------
B-------------------------------------------
G-------------------------------------------
D-------9-------10-------9---7--------------
A-------7-------8--------7---5--------------
E-0-0-0---0-0-0----0-0-0--------------------                                            


E-------------------------------------------
B-------------------------------------------
G-------------------------------------------
D-------------------------------------------
A-10-9-7-9-7-5--10-9-7-9-7-5--10-9-7-9-7-5-4
E-8--7-5-7-5-3--8--7-5-7-5-3--8--7-5-7-5-3-2



INTRUCCION AL VERSO Y VERSO

E---------------------------------------------------
B---------------------------------------------------
G---------------------------------------------------
D----------9-8-7-12-10-9-----------9-7-5-4-5-7------
A----------7-6-5-10-8--7-----------7-5-3-2-3-5------
E-00000000----------------00000000------------------ -->> con un ligero palm mute


E---------------------------------------------------
B---------------------------------------------------
G---------------------------------------------------
D----------9-8-7-12-10-9-----------7----------------
A----------7-6-5-10-8--7-----------5----5/4/5-------
E-00000000----------------00000000------3/2/3------- -->> con un ligero palm mute


CORO


E---------------------------------------------------
B---------------------------------------------------
G---------------------------------------------------
D---------------------------------------------------
A--------7-----5-----7---8-8------------------------
E--0-0-0---0-0---0-0---0-6-6------------------------


INTERLUDIO Y RITMO BAJO EL PRIMER SOLO


E---------------------------------------------------
B---------------------------------------------------
G---------------------------------------------------
D-2-2--2-2--2-2--2-2--3-3-3-------------------------
A-2-2--2-2--2-2--2-2--3-3-3-------------------------
E-0-0--0-0--0-0--0-0--1-1-1------------------------- 
  PM PM PM PM PM PM PM

SOLO (SE LOS DEBO)


RITMO PARA SOLO

E---------------------------------------------------
B---------------------------------------------------
G-PRIMER SOLO---------------------------------------
D-2-2-2-3-3-3--------------4-4-4-5-5-5--------------
A-0-0-0-1-1-1--(X8 VECES)--2-2-2-3-3-3--(X8 VECES)--
E---------------------------------------------------


INTERLUDIO


E---------------------------------------------------
B---------------------------------------------------
G---------------------------------------------------
D-2-2--2-2--2-2--2-2--3-3-3-------------------------
A-2-2--2-2--2-2--2-2--3-3-3-------------------------
E-0-0--0-0--0-0--0-0--1-1-1-------------------------
  PM PM PM PM PM PM PM


INTRUCCION AL VERSO 2 Y VERSO 2

E---------------------------------------------------
B---------------------------------------------------
G---------------------------------------------------
D----------9-8-7-12-10-9-----------9-7-5-4-5-7------
A----------7-6-5-10-8--7-----------7-5-3-2-3-5------
E-00000000----------------00000000------------------ -->> con un ligero palm mute


E---------------------------------------------------
B---------------------------------------------------
G---------------------------------------------------
D----------9-8-7-12-10-9-----------7----------------
A----------7-6-5-10-8--7-----------5----5/4/5-------
E-00000000----------------00000000------3/2/3------- -->> con un ligero palm mute


CORO


E---------------------------------------------------
B---------------------------------------------------
G---------------------------------------------------
D---------------------------------------------------
A--------7-----5-----7---8-8------------------------
E--0-0-0---0-0---0-0---0-6-6------------------------


FIN


E---------------------------------------------------
B---------------------------------------------------
G---------------------------------------------------
D-2-2--2-2--2-2--2----------------------------------
A-2-2--2-2--2-2--2----------------------------------
E-0-0--0-0--0-0--0----------------------------------
  PM PM PM PM PM
		   
AcordesyTabs.com © 2008 Acordes y Tablaturas para guitarra. Tabs and Chords for guitar. Aviso Legal - Contacto
El uso de este sitio está sujeto a la aceptación de los términos y condiciones (25 usuarios online)