tablaturas, partituras y acordes para guitarra
Busca por banda/artista:
 
y/o título de la canción:
A B C D E F G H I J K L M N O P Q R S T U V W X Y Z 0 1 2 3 4 5 6 7 8 9 / Top 100 tabs
Categorías
Usuarios
usuario:
Darse de alta
password:
Artistas más visitados
Publicidad
TOP acordes y tablaturas de los Tres


Sudapara
de los Tres
Puntúa este acorde/tab:      
(0.4/5)
Reportar este acorde/tab
  Añadir a tus favoritos
  Imprimir
Este es un tema muy bueno y suena bien el tab, mas adelante mando la 
del Unplugged, pero tengo malo el PC.
'y no se olviden del Bajo, porque siempre en todos lados mandan puras cosas de guitarra'


A)Intro		  2X 	
G |-----------------------||------------------------------------------
D |-01-01-01-01-01-01-01--||-012--------------------------------------
A |-----------------------||----0-------------------------------------
E |-----------------------||------------------------------------------

G |-------------------------------------------------------------------  
D |-22---------2--22------0567----------------------------------------  
A |----22-0-024------22-0---------------------------------------------  
E |-------------------------------------------------------------------  
									
G |-------------------------------------------------------------------  
D |-22---------2--22--------------------------------------------------  
A |----22-0-024------22-0-0567----------------------------------------  
E |-------------------------------------------------------------------  


 B) 0:18 Hablen algo interesante, nos dijo ...
G |------------------------------------------------------------------- 
D |-22---------2--22------------2------------------------------------- 
A |----22-0-024------22-0-0-2-4--------------------------------------- 2X 
E |-------------------------------------------------------------------  
 
 C) 0:27
G |-------------------------------------------------------------------
D |--22------0567---22---0567---22------0567---22------0567-----------
A |-----22-0-----------22----------22-0-----------22-0----------------
E |-------------------------------------------------------------------
 
 B) 0:36
G |-------------------------------------------------------------------
D |-22---------2--22------------2------------------------------------- 
A |----22-0-024------22-0-0-2-4--------------------------------------- 2X 
E |-------------------------------------------------------------------    
 
 D) 0:45	
G |-------------------------------------------------------------------
D |-------------------------------------------------------------------
A |-----2------------2------------2-----------------------------------
E |--0-----0--5---0-----0--5---0-----0--5-----------------------------

G |-------------------------------------------------------------------
D |-------------------------------------------------------------------
A |--2~~---4-----2----------------------------------------------------
E |----------5-2------------------------------------------------------

 INTRO) 0:54
G |-------------------------------------------------------------------  
D |-22---------2--22------0567----------------------------------------  
A |----22-0-024------22-0---------------------------------------------  
E |-------------------------------------------------------------------  
									
G |-------------------------------------------------------------------  
D |-22---------2--22--------------------------------------------------  
A |----22-0-024------22-0-0567----------------------------------------  
E |-------------------------------------------------------------------  

 B)2X  1:03 
 C)    1:12
 B)2X  1:21 
 D)    1:30
 
 E) 1:39                  3X
G |-----------------------||--------------------------------------------
D |-----------------------||--------------------------------------------
A |-------7-77--444-------||--2~~---------------------------------------
E |--222-------------555--||--------------------------------------------

  Solo Contra-Bajo 1:48

 B)4X  1:57
 D)    2:14
 
 E) 2:24
G |-------------------------------------------------------------------
D |-------------------------------------------------------------------
A |-------7-77--444--------------------------------------------------- 11X
E |--222-------------555----------------------------------------------

 F) 2:49
G |-------------------------------------------------------------------
D |-------------------------------------------------------------------
A |--2~~---4-----2----------------------------------------------------
E |----------5-2---0~-------------------------------------------------


que tal!! Nos belmaont como dice una persona por estos lados...
		   
AcordesyTabs.com © 2008 Acordes y Tablaturas para guitarra. Tabs and Chords for guitar. Aviso Legal - Contacto
El uso de este sitio está sujeto a la aceptación de los términos y condiciones (35 usuarios online)