tablaturas, partituras y acordes para guitarra
Busca por banda/artista:
 
y/o título de la canción:
A B C D E F G H I J K L M N O P Q R S T U V W X Y Z 0 1 2 3 4 5 6 7 8 9 / Top 100 tabs
Categorías
Usuarios
usuario:
Darse de alta
password:
Artistas más visitados
Publicidad
TOP acordes y tablaturas de Duncan Dhu


Estás en: Inicio > Letra D > Acordes y tablaturas de Duncan Dhu > Suelta las riendas de mi corazón
Suelta las riendas de mi corazón
de Duncan Dhu
Puntúa este acorde/tab:      
(0.4/5)
Reportar este acorde/tab
  Añadir a tus favoritos
  Imprimir
este es el bajeo

versos:
4:---------------2-2-4-4-------------------------4-2--
3:-2/4-4-2-2-1-1---------1-1-2-2-------------4-2------
2:-------------------------------2-2-4-4-2-2----------
1:----------------------------------------------------


4:---------------2-2-4-4------------------------------
3:-2/4-4-2-2-1-1---------1-1-2-2----------------------
2:-------------------------------2-2-4-4-2-2-4/6-4/6--
1:----------------------------------------------------


coro:

4:-----------------0-0-0-0-2-2-2-2--
3:-2-2-2-2-4-4-4-4------------------
2:----------------------------------
1:----------------------------------

4:-4-4-4-4-0-0-0-0---------2-2-2-2--
3:-----------------2-2-2-2----------
2:----------------------------------
1:----------------------------------

eso es todo lo que lleva esta rola principalmente
me late un resto lo que hace el bajo en los versos
espero y les lata tanto como ami.
tambien quiero decirles que tengo rolas de limp bizkit,
de oasis y de el nuevo album de creed (weathered)
(my sacrificed)(bullet)(hide) and more.
y esta rola va dedicada para una chava que es muy 
especial para mi y puedo decirle que suelte las riendas
de mi corazon (karen alcala).
		   
AcordesyTabs.com © 2008 Acordes y Tablaturas para guitarra. Tabs and Chords for guitar. Aviso Legal - Contacto
El uso de este sitio está sujeto a la aceptación de los términos y condiciones (31 usuarios online)