tablaturas, partituras y acordes para guitarra
Busca por banda/artista:
 
y/o título de la canción:
A B C D E F G H I J K L M N O P Q R S T U V W X Y Z 0 1 2 3 4 5 6 7 8 9 / Top 100 tabs
Categorías
Usuarios
usuario:
Darse de alta
password:
Artistas más visitados
Publicidad
TOP acordes y tablaturas de Platero y Tú


Estás en: Inicio > Letra P > Acordes y tablaturas de Platero y Tú > Me dan miedo las noches
Me dan miedo las noches
de Platero y Tú
Puntúa este acorde/tab:      
(0.7/5)
Reportar este acorde/tab
  Añadir a tus favoritos
  Imprimir
INTRO

|---------------------------------2-------|
|------------3----------------------3-----|
|-----4-4------4------------4-4--------4--|
|---4------------4--------4---------------| x5
|-2---------------------2-----------------|
|-----------------------------------------|

|-----|
|-----|
|--4*-|
|--4*-|
|--2*-|
|-----|
\_PM__/

        Bm               G5         A5
|-------------2----------------------------|
|---------3-----3--------------------------|
|-----4-----4------------------------------|
|---4---4------------------5----------7----| x4
|-2----------------------5---5------7---7--|
|----------------------3----------5--------|
\_______________P.M._______________________/



VERSO

B5                       G5  A5
Que rojos son tus labios
B5                       G5  A5
que negras tus mentiras
B5                       G5  A5
me estoy volviendo loco
B5                       G5  A5
no encuentro la salida.



ESTRIBILLO

Me engaño y me lo creo....
|---------------------------------------------------|
|---------------------------------------------------|
|-4--4--4--4----------------4--4--4--4--------------|
|-4--4--4--4--5--5--5--5----4--4--4--4--5--5--7--7--| x2
|-2--2--2--2--5--5--5--5----2--2--2--2--5--5--7--7--|
|-------------3--3--3--3----------------3--3--5--5--|



VERSO 2

B5                   G5         A5
Porque yo sin ti no puedo respirar
          B5              G5         A5
y cuando estoy contigo siempre acabo mal
etc...



Esta es la canción, se repiten muchas veces los mismos akordes,
asi ke no os resultará muy dificil. Los punteos ya los sakaré en otro viaje.
enga a disfrutarla. Para sugerencias o dudas: koyi_gothic@hotmail.com
              †KoYi†
		   
AcordesyTabs.com © 2008 Acordes y Tablaturas para guitarra. Tabs and Chords for guitar. Aviso Legal - Contacto
El uso de este sitio está sujeto a la aceptación de los términos y condiciones (30 usuarios online)