tablaturas, partituras y acordes para guitarra
Busca por banda/artista:
 
y/o título de la canción:
A B C D E F G H I J K L M N O P Q R S T U V W X Y Z 0 1 2 3 4 5 6 7 8 9 / Top 100 tabs
Categorías
Usuarios
usuario:
Darse de alta
password:
Artistas más visitados
Publicidad
TOP acordes y tablaturas de Carnaval de Cadiz


Estás en: Inicio > Letra C > Acordes y tablaturas de Carnaval de Cadiz > Sueño Imposible
Sueño Imposible
de Carnaval de Cadiz
Puntúa este acorde/tab:      
(0.5/5)
Reportar este acorde/tab
  Añadir a tus favoritos
  Imprimir
RUMBA “ SUEÑO IMPOSIBLE “ 

 INTRODUCCIÓN:  ( cejilla en 5º traste ) 

1|-000--8888-7-5--000-7777-5-3---000-5555-3-1--1>3--110--1-- 
2|----------------------------------------------------------
3|----------------------------------------------------------
4|----------------------------------------------------------
5|----------------------------------------------------------
6|----------------------------------------------------------
                                                       La m 
1|-000--8888-7-5--000-7777-5-3---000-5555-3-1---10------0---
2|------------------------------------------------310---1---
3|------------------------------------------------------2---
4|------------------------------------------------------2---
5|----------------------------------------------------------
6|----------------------------------------------------------

O bien, en vez de tocar el punteo, tocar los siguientes acordes en el 5º traste:

La menor, Mi menor, Fa Mayor, Do Mayor, Mi7ª  
La menor, Mi menor, Fa Mayor, Do Mayor, Mi7ª, La menor  

Todos los acordes con cejilla en 5ª traste:


                   Rem
La vida da tantas vueltas
                  Sol7ª
Que nunca pude pensar

Que lo que siempre fue mío
                 Do
Hoy es solo soledad


Mim                 Lam
Fueron tantas primaveras
Mim                 Lam 
Viendo flores en almendros
Fa
Que en este nuevo paisaje
SOLM
Siempre alucinaba un beso



Estribillo:
         Lam
Serás la niña de mis ojos
          Mim
Hasta el día que me muera
           Fa                     Do   Mi7ª
Que donde hubo amor primero algo queda
           Lam
Que te prometo dos locuras
       Mim
Y que quitan las razones
        Fa                    Do   Mi7ª
Eres testigo mudo de los corazones


                    Rem
Paso las noches contigo
                    Sol7ª
Estando solo en mi cama

Y me despierto llorando
                     Do
En tu lado de la almohada


Mim                Lam
Sueño sueño tus piropos
Mim                   Lam
Sueño sentirme en tu ser
Fa            
Sueño con robarte un beso
SolM
Sueño q vas a volver

Estribillo

Chu chu chu …..

Estribillo  

Serás la niña de mi amor

*** Canción dedicada a mi gente , y al todo el que le guste las rumbas ***
		   
AcordesyTabs.com © 2008 Acordes y Tablaturas para guitarra. Tabs and Chords for guitar. Aviso Legal - Contacto
El uso de este sitio está sujeto a la aceptación de los términos y condiciones (29 usuarios online)