tablaturas, partituras y acordes para guitarra
Busca por banda/artista:
 
y/o título de la canción:
A B C D E F G H I J K L M N O P Q R S T U V W X Y Z 0 1 2 3 4 5 6 7 8 9 / Top 100 tabs
Categorías
Usuarios
usuario:
Darse de alta
password:
Artistas más visitados
Publicidad
TOP acordes y tablaturas de Fiel a la Vega


Superheroes
de Fiel a la Vega
Puntúa este acorde/tab:      
(0.5/5)
Reportar este acorde/tab
  Añadir a tus favoritos
  Imprimir
INTRO por GEOVANNI VAZQUEZ (geovanniz@yahoo.com)
        
       E------------------------------------------------
       B------------------------------------------------
       G------------------------------------------------
       D--------------3----------------------------5-6-7
       A-3--5---3---5----5-------------8--7---5---------
       E---------------------3---5----------------------



       E----------------------------------------
       B----------------------------------------
       G----------------------------------------
       D--------------5--------------------7-8-9
       A--3--5---3--5----5-----------8-7-5------
       E---------------------3--5---------------



La           Mi  Re                  La
La mujer maravilla se fue ayer pa San Juan
             MI                     Re            Mi
por orden federal a bregar con la ola criminal...
RE                  La                       Mi
...y en isla verde tomaron el control de los faros
         Re            Mi               La    Mi
y a la mujer maravilla,   la van a estrellar
        Re        Mi
porque aqui en PR,   te vamos a tumbar

*la parte despues del solo es en Mi

*tambien al final hay un cambio:
             Fa#-    Mi
te vamos a tumbar o oo
		   
AcordesyTabs.com © 2008 Acordes y Tablaturas para guitarra. Tabs and Chords for guitar. Aviso Legal - Contacto
El uso de este sitio está sujeto a la aceptación de los términos y condiciones (21 usuarios online)