tablaturas, partituras y acordes para guitarra
Busca por banda/artista:
 
y/o título de la canción:
A B C D E F G H I J K L M N O P Q R S T U V W X Y Z 0 1 2 3 4 5 6 7 8 9 / Top 100 tabs
Categorías
Usuarios
usuario:
Darse de alta
password:
Artistas más visitados
Publicidad
TOP acordes y tablaturas de M-Clan


Estás en: Inicio > Letra M > Acordes y tablaturas de M-Clan > Superstition
Superstition
de M-Clan
Puntúa este acorde/tab:      
(0.7/5)
Reportar este acorde/tab
  Añadir a tus favoritos
  Imprimir
				

M-Clan hace unos maravillosos temas versionados. Cualquier
canción que cogen de otro artista la convierten en oro.



E--------------------------------------------
B--------------------------------------------
G--------------------------------------------
D--------------------------------5-----------
A------------------------7-5-7----7-5-5-7-
E-7-deslizar hasta 2-0--------------------


E---------------------------------------------
B---------------------------------------------
G---------------------------------------------
D-----------7^8^7-5-7-5------5------------
A----7-5-7----------------7-7---------------
E--0------------------------------------------


E-----------------------------------------------
B-----------------------------------------------
G-----------------------------------------------
D----------5----------------------7~~ 5-7----
A---7-5-7---7-5-5-7---7-5-7-------------7-
E-0--------------------0-----------------------
Se pueden intercambiarlos acordes 
siguientes después de el MI : LA, SOL, o RE

E			A	D	E
Very superstitious 
G    	D	E	A	G	E
Riding on the wall
G	D	E	A	D	E
Very superstitious
G	A	       E		G	D	E
Let the mountains fall
G	D	E	D	A	E
There…
D	A	E	G	D	E
Brother …
A	D	E	A	G	E
Seven …
     D		    A	     E	G    A	E
The good things on your past, 	   come on!
	      B		Bb
When you believe in things 
	    A		Ab
That you don’t understand
	    A
And this sorrow
B			   E      G   A  	E    D	A	
Superstitious is the way
E	G	D
Benouna
E	A	D
Pianista valenciano

Mientras que Luis Prado toca se tocan 
los mismos acordes: E	D	G	A

E
Haa
G     D    G   D     E	    E  D  G  E	A  D  E  D A E   
Haa haa haa haa ahh
G	D      E		A	G	E
Very superstitious
G	A	      E		A	G	E
Wash your face and hands
D	G	     E		A	D	E
Bring me all the brother
E
Aahhaagh
A	D	E	D	G	E
Do all that you can
G	D	E	A	D	E
Give me …
A	D	E	G	D	E
Give me dollar … all right
A	D		E	D	A	E
You don’t want to save me 
G	      D	     E	A	D	E
Saddening is my song
	      B		Bb
When you believe in things 
	    A		Ab
That you don’t understand
	    A
And this sorrow
B			   E	G	A		
Superstitious is the way
E	D	A	E	G	A
woooououghg
Santi Campillo




E---------------------------7-7-7-7------------------
B---------------------------8-8-8-8-5--------5-8-5-
G--------0-0---------------------------7-4-7--------
D---0-2-----2-0--------------------------------------
A-2--------------2------------------------------------
E-------------------3----------------------------------

E10~10~10~10~10~10~ -/-10(varias veces)---
B------------------------------------------------------
G------------------------------------------------------
D------------------------------------------------------
A------------------------------------------------------
E------------------------------------------------------


E-8 deslizar a 10-10-10-9-9-9-7------------------
B------------------------------------------------------
G------------------------------------------------------
D------------------------------------------------------
A------------------------------------------------------
E------------------------------------------------------

E------------------------------------------------------
B-8-8-5------5-8-5----------------------------------
G-------7-4-7------7-4—4-7-4--4-7---------------
D------------------------3-------3--------------------
A------------------------------------------------------
E------------------------------------------------------


E------7---12-10-7-12-10-7-12-10-7--12-10-7-
B---8---12-------12--------12------------12-------
G------------------------------------------------------
D------------------------------------------------------
A------------------------------------------------------
E------------------------------------------------------

E----10~ ---10~ ---10~ ----------10~ ----------10~ 
B-12----12------12-----12-10-12-----12-10-12----
G--------------------------------------------------------
D--------------------------------------------------------
A--------------------------------------------------------
E--------------------------------------------------------

E-12(varias veces)17-17-17-17-15-12-12---------
B---------------------------------------------------------
G---------------------------------------------------------
D---------------------------------------------------------
A---------------------------------------------------------
E---------------------------------------------------------

E--17-17-17-17-15-12--------------------------
B-------------------------12-----------------------
G-----------------------------9-7------------------
D----------------------------------9-8-7-----------
A-----------------------------------------10-7-----
E----------------------------------------------------


	      B		Bb
When you believe in things 
	    A		Ab
That you don’t understand
	    A
And this sorrow
B			   E			
Superstitious is the way
G	A	
blow oughgough
E	D	A    E	 D   A	   E   G	    A
is the waaaay
E
superstitious 
G	A	E
very superstitious 
E
superstition 
A	D	E
very superstitious 
E	
superstitious 
G	A	E
very superstitious 
E
superstitious 
G	A	E
very superstitious  
     G	A	E
very superstitious 
     D	G        E
very superstitious 
E
hey 
E		D	A	D	A
Weheeeyehey
E	
wehhheeeyeehey
		   
AcordesyTabs.com © 2008 Acordes y Tablaturas para guitarra. Tabs and Chords for guitar. Aviso Legal - Contacto
El uso de este sitio está sujeto a la aceptación de los términos y condiciones (29 usuarios online)