tablaturas, partituras y acordes para guitarra
Busca por banda/artista:
 
y/o título de la canción:
A B C D E F G H I J K L M N O P Q R S T U V W X Y Z 0 1 2 3 4 5 6 7 8 9 / Top 100 tabs
Categorías
Usuarios
usuario:
Darse de alta
password:
Artistas más visitados
Publicidad
TOP acordes y tablaturas de Carnaval de Cadiz


Tanguillo
de Carnaval de Cadiz
Puntúa este acorde/tab:      
(0.4/5)
Reportar este acorde/tab
  Añadir a tus favoritos
  Imprimir
Este punteo lo utilizo yo cuando hago una primera parte introducturia,
es decir el ritmo de un tanguillo cualqiera, cuando
acabo de puntear a continuación hago otra introducción
paracida a la primera y seguidamente le suelo meter 
un tanguillo ya entero (le suelo meter el de los 
duros Antiguos.)

El ritmo del puntuao si sois buenos asficionaos, vereis 
como es fácil, es un tanguillo pero en vez de 'rasgao',
punteando.

A= Aire

6---------------------------
5---------------------------
4---------------------------
3---------------------------
2--2-----2-----2------------
1----A-5---A-5---A-5-5-5-5--

6---------------------------
5---------------------------
4---------------------------
3---------------------------
2--2-----2-----2------------
1----A-4---A-4---A-4-4-4-4--

6---------------------------
5---------------------------
4---------------------------
3---------------------------
2--2-----2-----2------------
1----A-5---A-5---A-5-5-5-5--

6---------------------------
5---------------------------
4---------------------------
3---------------------------
2--2-----2-----2------------
1----A-5---A-5---A-5-4-3-2--


6---------------------------
5---------------------------
4---------------------------
3---------------------------
2--3-----3------------------
1----A-2---A-2-4-2-A--------


6---------------------------
5---------------------------
4---------------------------
3---------------------------
2--2-3-----------3-2-A------
1------A-2-A-4-2------------

Sin mas un abrazo a todos aquellos que os interese 
echarle un vistazo. Si teneis alguna duda ponerse en contacto conmigo
		   
AcordesyTabs.com © 2008 Acordes y Tablaturas para guitarra. Tabs and Chords for guitar. Aviso Legal - Contacto
El uso de este sitio está sujeto a la aceptación de los términos y condiciones (23 usuarios online)