tablaturas, partituras y acordes para guitarra
Busca por banda/artista:
 
y/o título de la canción:
A B C D E F G H I J K L M N O P Q R S T U V W X Y Z 0 1 2 3 4 5 6 7 8 9 / Top 100 tabs
Categorías
Usuarios
usuario:
Darse de alta
password:
Artistas más visitados
Publicidad
TOP acordes y tablaturas de Divididos


Estás en: Inicio > Letra D > Acordes y tablaturas de Divididos > Tanto Anteojo
Tanto Anteojo
de Divididos
Puntúa este acorde/tab:      
(0.2/5)
Reportar este acorde/tab
  Añadir a tus favoritos
  Imprimir
Bajo

w= 1 nota
h= 1/2 nota
q= 4 to de nota
e= 8 avo de nota
s= 16 avo de nota

 
Patrón A

    e e e e e e e e e e   e e e e e e e e e e e 
G-|---------------6-9---|----------------------|     
D-|-----6-6-7-9-9-------|----------------------|  
A-|-7-7-----------------|-7-7-5-4-4-2-2-0-2/7--|
E-|---------------------|----------------------|


Patrón B

    e e e e e e e e e e   e e e e e e e e e e e e e e e e e  
G-|---------------6-9---|-------------------------------------|     
D-|-----6-6-7-9-9-------|-------------------------------------|  
A-|-7-7-----------------|-7-7-5-4-4-2-2-0-2/7-7-7-7-7-7-7-(7)-|
E-|---------------------|-------------------------------------|


Patrón C

    h  h w  h  h h  h  h  h  e e   w 
G-|-----------------------------------|     
D-|-----------------------------------|  
A-|-----------------------5--6-6--(7)-|
E-|-7--7/0--7--7/0--5--7--------------| 


Patrón D                                                 x2   Sub Patrón (E)      
                                                     -----------------------
    e e e e e e e e e e e e e e e e e e e e e e e e e e e e e e e e e e e e e  
G-|--6--6--6--6--5--5--5--5--4--4--4--4--2--2--2--2--------------------------|     
D-|---------------------------------------------------6--6--6--6--4--4--4--4-|  
A-|-4--4--4--4--3--3--3--3--2--2--2--2--0--0--0--0---------------------------|
E-|--------------------------------------------------4--4--4--4--2--2--2--2--|   

                            ----------o-----------

Intro:

    q  e  e  e  e  e  e  e  e  e  e  e  e  e  e   
G-|---------------------------------------------|
D-|-2/14-14-14-14-14-14-14-14-14-14-14-14-14-14-|    
A-|---------------------------------------------|            
E-|---------------------------------------------| 

 A (x2)

(A) Tanto anteojo,tanto anteojo 
(A) clínica del rock
(A) pinzeletas en vigilia
(A) baba de un autor

(A) tanto anteojo, tanto anteojo
(A) temple de escritor
(A) esquivando los chichones
(B) migazo y copetín

humedad de alma   |   (C)
humedad de alma   |
gaucha                 

A (x2)

(A) por sansón de los domingos
(A) lleno y aburrido
(A) tanto anteojo, tanto anteojo
(A) la panza se dejó

(A) charlatan del sexo de antes
(A) libro actmin
(A) tanto anteojo tanto anteojo
(B) che de cafetín
    che

humedad de alma |   (C)
humedad de alma |
gaucha

A (x2)

por drogado                 |  (C)
por drogado a bellas artes  |  

narigón del siglo           |
yo te dejo perfumado        |  (D)
en la esquina para siempre  |

narigón del siglo           |
yo te dejo perfumado        |  (D)
en la esquina para siempre  |
(E)para siempre, para siempre ehh ehh ehh 

A (x3) 

Como final ésto

    e e e e e e e e e e   e e e e e e e e e  w 
G-|---------------6-9---|------------------------|     
D-|-----6-6-7-9-9-------|------------------------|  
A-|-7-7-----------------|-7-7-5-4-4-2-2/11/0-(7)-|
E-|---------------------|------------------------|


Bueno fanáticos de Divididos (me incluyo) espero que les guste
y acuerdense: cualquier duda u corrección mandenme un mail a
joaco_birba@hotmail.com
		   
AcordesyTabs.com © 2008 Acordes y Tablaturas para guitarra. Tabs and Chords for guitar. Aviso Legal - Contacto
El uso de este sitio está sujeto a la aceptación de los términos y condiciones (10 usuarios online)