tablaturas, partituras y acordes para guitarra
Busca por banda/artista:
 
y/o título de la canción:
A B C D E F G H I J K L M N O P Q R S T U V W X Y Z 0 1 2 3 4 5 6 7 8 9 / Top 100 tabs
Categorías
Usuarios
usuario:
Darse de alta
password:
Artistas más visitados
Publicidad
TOP acordes y tablaturas de Hamlet


Estás en: Inicio > Letra H > Acordes y tablaturas de Hamlet > Tan simple como decir no
Tan simple como decir no
de Hamlet
Puntúa este acorde/tab:      
(0.7/5)
Reportar este acorde/tab
  Añadir a tus favoritos
  Imprimir

NOTACION

p= pull off
s= slide
>= mantener el sonido
Harm= harmónico (si va seguido de una línea de puntos
hacerlo hasta donde termine la línea de puntos)
PM= palm muted (si va seguido de una línea de puntos hacerlo
hasta donde termine la línea de puntos)

------------------------------------------------------------
------------------------------------------------------------

AFINACION

Afinación en C (C,F,Bb,Eb,G,C): afina todas las cuerdas de
la guitarra cuatro semitonos menos


------------------------------------------------------------
------------------------------------------------------------


-----
INTRO
-----


----------------------------------------
----------------------------------------
---------------------------------------- (x3)
----------------------------------------
--4--------4--4-----4--4----------------
--2--0--0--2--2--0--2--2--0--0--2p0--0--
     PM.......................

--------------------------------
--------------------------------
-----------------------------3--
--------------------------------
--4--------4--4-----4-----3-----
--2--0--0--2--2--0--2--3--------
     PM..............  Harm...


-----
VERSO
-----


1) (Que tal, tío Sam,...)


----------------------------------------
----------------------------------------
---------------------------------------- (x3)
----------------------------------------
--4--------4--4-----4--4----------------
--2--0--0--2--2--0--2--2--0--0--2p0--0--
     PM.......................

--------------------------------------
--------------------------------------
--------------------------------------
--------------------------------5--5--
--4--------4--4-----4--4--------3--3--
--2--0--0--2--2--0--2--2--0--0--------
     PM.......................


2) (Soy un mutilado por las putas minas...)


----------------------------------------
----------------------------------------
---------------------------------------- (x3)
----------------------------------------
--4--------4--4-----4--4----------------
--2--0--0--2--2--0--2--2--0--0--2p0--0--
  PM..................................

-------------------
-------------------
-------------------
-------------------
--4--4----4--4--4--
--2--2----2--2--2--


------
CHORUS
------


1) (Stop, stop, stop,sólo quiero oír...)


--2--2--2--2----------------
--2--2--2--2----------------
--------------4s5--5--5--4-- (x3)
--4--4--4--4--4s5--5--5--4--
--4--4--4--4--2s3--3--3--2--
--2--2--2--2----------------

--2--2--2--2-----------------
--2--2--2--2-----------------
--------------7--7--7--4----- 
--4--4--4--4--7--7--7--4--2--
--4--4--4--4--5--5--5--2--2--
--2--2--2--2--------------0--

--2--2--2--2----------------
--2--2--2--2----------------
--------------4s5--5--5--4-- (x3)
--4--4--4--4--4s5--5--5--4--
--4--4--4--4--2s3--3--3--2--
--2--2--2--2----------------

--2--2--2--2-------------------- 
--2--2--2--2--------------------
--------------7--7--7--4--4--6--
--4--4--4--4--7--7--7--4--2--4--
--4--4--4--4--5--5--5--2--2--4--
--2--2--2--2--------------------

-------------------- 
--------------------
--7--7--7--4--4--6--(x3)
--7--7--7--4--2--4--
--5--5--5--2--2--4--
--------------------

-----------------2>--
-----------------2>--
--7--7--7--4--2------
--7--7--7--4--2--4>--
--5--5--5--2--0--4>--
-----------------2>--


--------2>--------
--------2>--------
--5--5------5--5--
--5--5--4>--5--5--
--3--3--4>--3--3--
--------2>--------


2) (x16)


--------------------------------
--------------------------------
--------------------------------
-----------------------7--8-----
--5--5--5--3--3--5--5--5--6--8--
--3--3--3--1--1--3--3--------6--
     PM..     PM    PM


------------------------------------------------------------
------------------------------------------------------------
		   
AcordesyTabs.com © 2008 Acordes y Tablaturas para guitarra. Tabs and Chords for guitar. Aviso Legal - Contacto
El uso de este sitio está sujeto a la aceptación de los términos y condiciones (35 usuarios online)