tablaturas, partituras y acordes para guitarra
Busca por banda/artista:
 
y/o título de la canción:
A B C D E F G H I J K L M N O P Q R S T U V W X Y Z 0 1 2 3 4 5 6 7 8 9 / Top 100 tabs
Categorías
Usuarios
usuario:
Darse de alta
password:
Artistas más visitados
Publicidad
TOP acordes y tablaturas de Hamlet


Estás en: Inicio > Letra H > Acordes y tablaturas de Hamlet > Tan simple como decir no
Tan simple como decir no
de Hamlet
Puntúa este acorde/tab:      
(0.7/5)
Reportar este acorde/tab
  Añadir a tus favoritos
  Imprimir
 GRUPO: Hamlet
 DISCO: Insomnio
 TEMA : Tan Simple Como Decir No
 Instrumento  : Bajo
 Tabulado por : Mikel Rojo (MIKEROJO@teleline.es)



	Es una canción bastante rápida pero sencilla. Es chungo controlar
   el índice sobre el segundo traste durante la estrofa pero después de
   practicarlo un poco sale sin pensarlo.

	El estribillo es más fácil y suena bien. Divertido de tocar. Mucha
   soltura de mano derecha.

Riff 1
D# |-----------------------------|
A# |-----------------------------|
F  |-----------------------------|
C  |--2-0-0-2-0-0-2--2-2-0-2-0-0-|

Riff 2
D# |-----------------------------|
A# |-----------------------------|
F  |------------------------3-3--|
C  |--2-0-0-2-0-0-2--2-2-0-------|

Riff 3
D# |-----------------------------|
A# |------4----------------------|
F  |-------------2/3-3-3-2-------|
C  |--2------2---------------0---|

Riff 4
D# |-----------------------------|
A# |------4----------------------|
F  |-----------------------------|
C  |--2------2-------------------|

Riff 5
D# |-----------------------------|
A# |-----------------------------|
F  |---5-5--5-----7--------------|
C  |-----------7-----------------|

Riff 6
D# |-----------------------------|
A# |-----------------------------|
F  |---5-5--5--------------------|
C  |-------------7--5------------|

Riff 1 x3
Riff 2 x1
Riff 1 x3
Riff 2 x1
Riff 1 x1 (ahora las notas son mas largas, se nota en la canción)
Riff 2 x1 (igual que arriba)
Todo esto hasta ahora, otra vez
Riff 3 x3
Riff 4 x1
Riff 5 x1
Riff 3 x3
Riff 4 x1
Riff 5 x1
Riff 4 x1
Riff 5 x1
Riff 4 x1
Riff 6 x1 (Sabiendo esto, lo demás es repetirlo cambiando ordenes, basta oír la canción.)



------> Podeis mandar vuestras sugerencias a madesmania.com
		   
AcordesyTabs.com © 2008 Acordes y Tablaturas para guitarra. Tabs and Chords for guitar. Aviso Legal - Contacto
El uso de este sitio está sujeto a la aceptación de los términos y condiciones (57 usuarios online)