tablaturas, partituras y acordes para guitarra
Busca por banda/artista:
 
y/o título de la canción:
A B C D E F G H I J K L M N O P Q R S T U V W X Y Z 0 1 2 3 4 5 6 7 8 9 / Top 100 tabs
Categorías
Usuarios
usuario:
Darse de alta
password:
Artistas más visitados
Publicidad
TOP acordes y tablaturas de Pastilla


Mentira
de Pastilla
Puntúa este acorde/tab:      
(0.6/5)
Reportar este acorde/tab
  Añadir a tus favoritos
  Imprimir
Acordes:
===============================================
E5              0 2 x x x x
D5              x 5 7 7 x x
G5              3 5 5 x x x

===============================================

RIFF:1

e|--7-----7-----5-----5-----7-----7-----5-----5-----||
B|--------------------------------------------------||
G|-----9-----9-----7-----7-----9-----9-----7-----7--||  (2X)
D|--------------------------------------------------||
A|--------------------------------------------------||
E|--------------------------------------------------||

RIFF:2

e|---------------------------|-------------------------|
B|---------------------------|-------------------------|
G|---------------------------|-------------------------|  
D|--7---7-6---6-5---4-5-4-5--|--7--7-6---6-5---4--7-7--|
A|---------------------------|-------------------------|
E|---------------------------|-------------------------|



E5
Mira este amor

Creias que todo era mentiras

Y al despertar, nunca te vi

D5
Mira el resplandor

Creiste que todo era promesas
                            D5
Y al despertar, me sorprendi

G5
Mira que mi amor 
                          D5
Pensabas que todo era mentiras

G5
Mira que mi amor 
                         D5 
Sabias que todo era mentiras


RIFF:3

e|------------|------------|---------------------------|-------------------------|
B|------------|------------|---------------------------|-------------------------|
G|------------|------------|---------------------------|-------------------------|  
D|--4---5--7--|--4---5--7--|--7---7-6---6-5---4-5-4-5--|--7--7-6---6-5---4--7-7--|
A|------------|------------|---------------------------|-------------------------|
E|------------|------------|---------------------------|-------------------------|


E5
Mira el resplandor

Pensabas que todo estaba muerto

Y al despertar, lo consegui

D5
Mira este amor

Pensabas que todo era un sueño
D5
Y al despertar, ya no te vi

G5
Mira que mi amor
                          D5
Pensabas que todo era mentiras

G5
Mira que mi amor
                        D5
Sabias que todo era mentiras

G5  D5
Ohhhhh


RIFF:OUTRO

e|------------|------------|---------------------------|-------------------------|
B|------------|------------|---------------------------|-------------------------|
G|------------|------------|---------------------------|-------------------------|  
D|--4---5--7--|--4---5--7--|--7---7-6---6-5---4-5-4-5--|--7--7-6---6-5---4--7-7--|
A|------------|------------|---------------------------|-------------------------|
E|------------|------------|---------------------------|-------------------------|

e|-----------------------------|
B|--------------------------6--|
G|--------------------------6--|
D|--5--7--/9--6-6--7--/9----6--|
A|-----------------------------|
E|-----------------------------|


======================================================
Transcripción de Diego Mata
http://www.angelfire.com/ma/RockDraw/PastillaTAB.html
Drac_elPoet@hotmail.com
		   
AcordesyTabs.com © 2008 Acordes y Tablaturas para guitarra. Tabs and Chords for guitar. Aviso Legal - Contacto
El uso de este sitio está sujeto a la aceptación de los términos y condiciones (36 usuarios online)