tablaturas, partituras y acordes para guitarra
Busca por banda/artista:
 
y/o título de la canción:
A B C D E F G H I J K L M N O P Q R S T U V W X Y Z 0 1 2 3 4 5 6 7 8 9 / Top 100 tabs
Categorías
Usuarios
usuario:
Darse de alta
password:
Artistas más visitados
Publicidad
TOP acordes y tablaturas de Pastilla


Mentira
de Pastilla
Puntúa este acorde/tab:      
(0.9/5)
Reportar este acorde/tab
  Añadir a tus favoritos
  Imprimir
  Acordes:
=====================================================================
La              0 0 2 2 2 0
Do5             x 3 5 5 x x
Fa#5            2 4 4 x x x
La5             5 7 7 x x x

 Instrucciones:
=====================================================================

 ~ = sustain (mantener la nota sonando)

 / = slide (deslizar la pisada de la izquierda a la de la derecha)

 p = pullof (ej. 10p9 tocar el traste 10 y soltar, pisando el 9 para 
                 que suene este ultimo)

 b() = bend (ej. 9b11 tocar el traste 9 y levantar la cuerda hasta que
                 suene como el traste 11, sin moverte del traste 9)   



  Tab para 2 guitarras, bajo y la letra de la canci¢n:
=====================================================================
Intro:

 guit. 1(limpia)
|5---5---7---7---|5---5--/9--10p9-|5---5---7---7---|5---5--/9--10p9-|
|--5---5---5---5-|--5---5/--------|--5---5---5---5-|--5---5/--------|
|----------------|----------------|----------------|----------------|
|----------------|----------------|----------------|----------------|
|----------------|----------------|----------------|----------------|
|----------------|----------------|----------------|----------------|
|                |                |                |                |
| bajo(limpio... jeje)            |                |                |
|----------------|----------------|----------------|----------------|
|----------------|----------------|7~~~------------|----------------|
|----------------|----------------|----------------|----------------|
|----------------|----------------|----------------|----------------|


  guit.1 (limpia)
|5---5---7---7---|5---5--/9--10p9-|5---5---7---7---|5---5--/9--10p9-|
|--5---5---5---5-|--5---5/--------|--5---5---5---5-|--5---5/--------|
|----------------|----------------|----------------|----------------|
|----------------|----------------|----------------|----------------|
|----------------|----------------|----------------|----------------|
|----------------|----------------|----------------|----------------|
|                |                |                |                |
| guit. 2 (Dist) |                |                |                |
|----------------|----------------|----------------|----------------|
|----------------|----------------|----------------|--------5---5---|
|----------------|----------------|----------------|4-----4---------|
|7-----7-6-----6-|4-----4---------|7-----7-6-----6-|----------------|
|----------------|--------7-5-7---|----------------|----------------|
|----------------|----------------|----------------|----------------|
|                |                |                |                |
| Bajo           |                |                |                |
|--------6---6---|7---7---6-9~~---|--------6---6---|7---7---6-------|
|7---7-----------|----------------|7---7-----------|----------9~~---|
|----------------|----------------|----------------|----------------|
|----------------|----------------|----------------|----------------|



  guit 1(limpia)
 La
|----------------|----------------|----------------|----------------|
|2-2-2-2-2-2-2-2-|2-2-2-2-2-3-2-3-|2-2-2-2-3-2-3-5-|5-5-5-5-5-5-5-5-|
|2-2-2-2-2-2-2-2-|2-2-2-2-2-2-2-2-|2-2-2-2-2-2-2-2-|2-2-2-2-2-2-2-2-|
|----------------|----------------|----------------|----------------|
|----------------|----------------|----------------|----------------|
|----------------|----------------|----------------|----------------|
|                |                |                |                |
| Bajo           |                |                |                |
|--------6---6---|7---7---6-9~~---|--------6---6---|7---7---6-------|
|7---7-----------|----------------|7---7-----------|----------9~~---|
|----------------|----------------|----------------|----------------|
|----------------|----------------|----------------|----------------|


 La
|----------------|----------------|----------------|----------------|
|2---------------|2---------------|2---------------|2---------------|
|2---------------|2---------------|2---------------|2---------------|
|----------------|----------------|----------------|----------------|
|----------------|----------------|----------------|----------------|
|----------------|----------------|----------------|----------------|
|                |                |                |                |
| Bajo           |                |                |                |
|--------6---6---|7---7---6-9~~---|--------6---6---|7---7---6-------|
|7---7-----------|----------------|7---7-----------|----------9~~---|
|----------------|----------------|----------------|----------------|
|----------------|----------------|----------------|----------------|
Mira este amor                         cre¡as que todo era mentira


 La
|----------------|----------------|----------------|----------------|
|2---------------|2---------------|2---------------|2---------------|
|2---------------|2---------------|2---------------|2---------------|
|----------------|----------------|----------------|----------------|
|----------------|----------------|----------------|----------------|
|----------------|----------------|----------------|----------------|
|                |                |                |                |
| Bajo           |                |                |                |
|--------6---6---|7---7---6-9~~---|--------6---6---|7---7---6-------|
|7---7-----------|----------------|7---7-----------|----------9~~---|
|----------------|----------------|----------------|----------------|
|----------------|----------------|----------------|----------------|
       y al despertar     nunca te vi


La Guit.1  (Limpia)
|----------------|----------------|----------------|----------------|
|2---------------|2---------------|2---------------|2---------------|
|2---------------|2---------------|2---------------|2---------------|
|----------------|----------------|----------------|----------------|
|----------------|----------------|----------------|----------------|
|----------------|----------------|----------------|----------------|
|                |                |                |                |
| guit.2 (Dist.) |                |                |                |
|----------------|----------------|----------------|----------------|
|----------------|----------------|----------------|----------------|
|6-6-6-6-7-7-7-7-|6-6-6-6-7-7-7-7-|6-6-6-6-7-7-7-7-|6-6-6-6-7-7-7-7-|
|7-7-7-7-7-7-7-7-|0-0-0-0-0-0-0-0-|7-7-7-7-7-7-7-7-|0-0-0-0-0-0-0-0-|
|0-0-0-0-0-0-0-0-|0-0-0-0-0-0-0-0-|0-0-0-0-0-0-0-0-|0-0-0-0-0-0-0-0-|
|----------------|----------------|----------------|----------------|
|                |                |                |                |
| Bajo           |                |                |                |
|--------6---6---|7---7---6-9~~---|--------6---6---|7---7---6-------|
|7---7-----------|----------------|7---7-----------|----------9~~---|
|----------------|----------------|----------------|----------------|
|----------------|----------------|----------------|----------------|
 mira el resplandor                creiste    que todo era promesas


La  Guit. 1 (Limpia)
|----------------|----------------|----------------|----------------|
|2---------------|2---------------|2---------------|2---------------|
|2---------------|2---------------|2---------------|2---------------| 
|----------------|----------------|----------------|----------------|
|----------------|----------------|----------------|----------------|
|----------------|----------------|----------------|----------------|
|                |                |                |                |
|La              |Guit.2          |(Distorsion)    |                |
|----------------|----------------|----------------|----------------|
|----------------|----------------|----------------|----------------|
|----------------|----------------|6-6-6-6-6-6-6-6-|6-6-6-6-6-6-6-6-|
|----------------|----------------|7-7-7-7-7-7-7-7-|7-7-7-7-7-7-7-7-|
|----------------|----------------|0-0-0-0-0-0-0-0-|0-0-0-0-0-0-0-0-|
|----------------|----------------|----------------|----------------|
|                |                |                |                |
| Bajo           |                |                |                |
|--------6---6---|7---7---6-9~~---|--------6---6---|7---7---6-------|
|7---7-----------|----------------|7---7-----------|----------9~~---|
|----------------|----------------|----------------|----------------|
|----------------|----------------|----------------|----------------|
       y al despertar   me sorprendi


 Fa#5  Guit. 1(Distorsion)
|----------------|----------------|----------------|----------------|
|----------------|----------------|----------------|----------------|
|----------------|----------------|----------------|----------------|
|4-4-4-4-4-4-4-4-|4-4-4-4-4-4-4-4-|4-4-4-4-4-4-4-4-|4-4-4-4-4-4-4-4-|
|4-4-4-4-4-4-4-4-|4-4-4-4-4-4-4-4-|4-4-4-4-4-4-4-4-|4-4-4-4-4-4-4-4-|
|2-2-2-2-2-2-2-2-|2-2-2-2-2-2-2-2-|2-2-2-2-2-2-2-2-|2-2-2-2-2-2-2-2-| 
|                |                |                |                |
|                |                |                |                |
|----------------|----------------|----------------|----------------|
|7-7-7-7-7-7-7-7-|7-7-7-7-7-7-7-7-|7-7-7-7-7-7-7-7-|7-7-7-7-7-7-7-7-|
|6-6-6-6-6-6-6-6-|6-6-6-6-6-6-6-6-|6-6-6-6-6-6-6-6-|6-6-6-6-6-6-6-6-|
|7-7-7-7-7-7-7-7-|7-7-7-7-7-7-7-7-|7-7-7-7-7-7-7-7-|7-7-7-7-7-7-7-7-|
|0-0-0-0-0-0-0-0-|0-0-0-0-0-0-0-0-|0-0-0-0-0-0-0-0-|0-0-0-0-0-0-0-0-|
|----------------|----------------|----------------|----------------|
|                |                |                |                |
| Bajo           |                |                |                |
|----------------|----------------|----------------|----------------|
|----------------|----------------|----------------|----------------|
|----------------|----------------|----------------|----------------|
|2-2-2-2-2-2-2-2-|2-2-2-2-2-2-2-2-|2-2-2-2-2-2-2-2-|2-2-2-2-2-2-2-2-|
 mira que mi amor                       pensabas  que  todo  era  men-

 Do5      Guit. 1
|----------------|----------------|----------------|----------------|
|----------------|----------------|----------------|----------------|
|5-5-5-5-5-5-5-5-|5-5-5-5-5-5-5-5-|5-5-5-5-5-5-5-5-|5-5-5-5-5-5-5-5-|
|5-5-5-5-5-5-5-5-|5-5-5-5-5-5-5-5-|5-5-5-5-5-5-5-5-|5-5-5-5-5-5-5-5-|
|3-3-3-3-3-3-3-3-|3-3-3-3-3-3-3-3-|3-3-3-3-3-3-3-3-|3-3-3-3-3-3-3-3-|
|----------------|----------------|----------------|----------------|
|                |                |                |                |
|         Guit. 2|                |                |                |
|----------------|----------------|----------------|----------------|
|8-8-8-8-8-8-8-8-|8-8-8-8-8-8-8-8-|8-8-8-8-8-8-8-8-|7/8-8-7/8-8-7/8-|
|0-0-0-0-0-0-0-0-|0-0-0-0-0-0-0-0-|0-0-0-0-0-0-0-0-|0-0-0-0-0-0-0-0-|
|----------------|----------------|----------------|----------------|
|----------------|----------------|----------------|----------------|
|----------------|----------------|----------------|----------------|
|                |                |                |                |
| Bajo           |                |                |                |
|----------------|----------------|----------------|----------------|
|----------------|----------------|----------------|----------------|
|3-3-3-3-3-3-3-3-|3-3-3-3-3-3-3-3-|3-3-3-3-3-3-3-3-|3-3-3-3-3-3-3-3-|
|----------------|----------------|----------------|----------------|
 tira

 Fa#5
|----------------|----------------|----------------|----------------|
|7---7-7-7-7-7-7-|7-7-7-7-7-7-7-7-|7---7-7---7-7---|7-7-7-7-7-7-7-7-|
|9b(11)~-~-~-~-~-|~-~-~-~-~-~-~-~-|9b(11)9b(11)9b(11)-9b(11)~-~-~-~-|
|----------------|----------------|----------------|----------------|
|----------------|----------------|----------------|----------------|
|----------------|----------------|----------------|----------------|
|                |                |                |                |
|                |                |                |                |
|----------------|----------------|----------------|----------------|
|7-7-7-7-7-7-7-7-|7-7-7-7-7-7-7-7-|7-7-7-7-7-7-7-7-|7-7-7-7-7-7-7-7-|
|9b(11)9b(11)~-~-|9b(11)9b(11)~-~-|9b(11)~-~-9b(11)|~-9b(11)~-~-~-~-|
|----------------|----------------|----------------|----------------|
|----------------|----------------|----------------|----------------|
|----------------|----------------|----------------|----------------|
|                |                |                |                |
| Bajo           |                |                |                |
|----------------|----------------|----------------|----------------|
|----------------|----------------|----------------|----------------|
|----------------|----------------|----------------|----------------|
|2-2-2-2-2-2-2-2-|2-2-2-2-2-2-2-2-|2-2-2-2-2-2-2-2-|2-2-2-2-2-2-2-2-|
 mira   que mi amor                      sabias      que todo era men-

 Do5
|----------------|-----------------|----------------|8-8-8-8-8-8-8-8-|
|8-8-8-8-8-8-8-8-|8-8--8-8-8-8-8-8-|8-8-8-8-8-8-8-8-|----------------|
|10b12-10b12-~-~-|10b12--10b12-~~~-|10b12~--10b12-~-|----------------|
|----------------|-----------------|----------------|----------------|
|----------------|-----------------|----------------|----------------|
|----------------|-----------------|----------------|----------------|
|                |                 |                |                |
|                |                 |                |                |
|------8-8-8-8-8-|8-10-8-8-8-8-8-8-|----------------|----------------|
|11b12-~---------|-----------------|11b12--11b12--11b12--11b12-~-~-~-|
|----------------|-----------------|----------------|----------------|
|----------------|-----------------|----------------|----------------|
|----------------|-----------------|----------------|----------------|
|----------------|-----------------|----------------|----------------|
|                |                 |                |                |
| Bajo           |                 |                |                |
|----------------|-----------------|----------------|----------------|
|----------------|-----------------|----------------|----------------|
|3-3-3-3-3-3-3-3-|3-3--3-3-3-3-3-3-|3-3-3-3-3-3-3-3-|3-3-3-3-3-3-3-3-|
|----------------|-----------------|----------------|----------------|
 tira                             

(Todas la guitarras, tambien el bajo)
|----------------|----------------|
|----------------|----------------|
|--------4-------|----------------|
|----6-----------|----4---7-------|
|7---------------|5---------------|
|----------------|----------------|


 Las dos guitarras con distorsion
|----------------|----------------|----------------|----------------|
|----------------|----------------|----------------|--------5---5---|
|----------------|----------------|----------------|4-----4---------|
|7-7---7-6-----6-|4-----4---------|7---7-7-6-----6-|----------------|
|----------------|--------7-5-7---|----------------|----------------|
|----------------|----------------|----------------|----------------|
|                |                |                |                |
| Bajo           |                |                |                |
|--------6-6---6-|7-7---7-6---9---|--------6-6---6-|7-7---7-6-------|
|7-7---7---------|----------------|7-7---7---------|------------9---|
|----------------|----------------|----------------|----------------|
|----------------|----------------|----------------|----------------|


....*Lo dem s se toca igual, solo cambia la letra:


La
Mira el resplandor pensabas que todo estaba muerto
y al despertar lo consegu¡

mira este amor pensabas que todo era un sue¤o
y al despertar ya no te vi

Fa#5                                      Do5
mira que mi amor, pensabas que todo era mentira
Fa#5                                      Do5
mira que mi amor, sab¡as que todo era mentira   ooh!!


 (las dos guitarras y el bajo)
|----------------|----------------|
|----------------|----------------|
|--------4-------|----------------|
|----6-----------|----4---7-------|
|7---------------|5---------------|
|----------------|----------------|


 Las dos guitarras con distorsion
|----------------|----------------|----------------|----------------|
|----------------|----------------|----------------|--------5---5---|
|----------------|----------------|----------------|4-----4---------|
|7-----7-6-----6-|4-----4---------|7-----7-6-----6-|----------------|
|----------------|--------7-5-7---|----------------|----------------|
|----------------|----------------|----------------|----------------|
|                |                |                |                |
| Bajo           |                |                |                |
|--------6-6---6-|7-7---7-6---9---|--------6-6---6-|7-7---7-6-------|
|7-7---7---------|----------------|7-7---7---------|------------9---|
|----------------|----------------|----------------|----------------|
|----------------|----------------|----------------|----------------|

 las dos guitarras                 FIN...
|----------------|----------------|----------------|----------------|
|----------------|----------------|----------------|----------------|
|--------4-------|----------------|----------------|----------------|
|----6-----------|------4-7-------|7~~~~~~~~-------|----------------|
|7---------------|5-5-------------|7~~~~~~~--------|----------------|
|----------------|----------------|5~~~~~~~~-------|----------------|
|                |                |                |                |
| Bajo           |                |                |                |
|--------4-------|----------------|----------------|----------------|
|----6-----------|------4-7-------|----------------|----------------|
|7---------------|5-5-------------|0~~~~~~~~~------|----------------|
|----------------|----------------|----------------|----------------|
		   
AcordesyTabs.com © 2008 Acordes y Tablaturas para guitarra. Tabs and Chords for guitar. Aviso Legal - Contacto
El uso de este sitio está sujeto a la aceptación de los términos y condiciones (26 usuarios online)