tablaturas, partituras y acordes para guitarra
Busca por banda/artista:
 
y/o título de la canción:
A B C D E F G H I J K L M N O P Q R S T U V W X Y Z 0 1 2 3 4 5 6 7 8 9 / Top 100 tabs
Categorías
Usuarios
usuario:
Darse de alta
password:
Artistas más visitados
Publicidad
TOP acordes y tablaturas de Ricardo Arjona


Mentiroso
de Ricardo Arjona
Puntúa este acorde/tab:      
(0.6/5)
Reportar este acorde/tab
  Añadir a tus favoritos
  Imprimir
Esta intro esta mas completo, porque tiene los bajos que lleva
entonces suena mejor, espero que les agrade, suena identico.


e------0----3---5---7---3--------10--12--10----------------------
b--3-----------------------------------------10--12~12--10---3---
g----------------------------------------------------------------
d---------------0----------------12-----------0------------------
a----------------------------------------------------------------
E--3---------------------------------------------------------3---

e---0--3--5--7~7----3-----
b-------------------------
g-------------------------
d---0---------------0-----
a-------------------------
E-------------------------


las notas que va entre el signo (#~#)se tocan rapido.

no puse lo que lleva,la segunda guitarr, pero si quieren lo que 
lleva pidamenla por e-mail, porque ahorita no tenia mucho tiempopara ponerlo.
bueno, nos vemos compas, hasta la proxima...>
		   
AcordesyTabs.com © 2008 Acordes y Tablaturas para guitarra. Tabs and Chords for guitar. Aviso Legal - Contacto
El uso de este sitio está sujeto a la aceptación de los términos y condiciones (26 usuarios online)