tablaturas, partituras y acordes para guitarra
Busca por banda/artista:
 
y/o título de la canción:
A B C D E F G H I J K L M N O P Q R S T U V W X Y Z 0 1 2 3 4 5 6 7 8 9 / Top 100 tabs
Categorías
Usuarios
usuario:
Darse de alta
password:
Artistas más visitados
Publicidad
TOP acordes y tablaturas de Ska-P


Estás en: Inicio > Letra S > Acordes y tablaturas de Ska-P > Mestizaje
Mestizaje
de Ska-P
Puntúa este acorde/tab:      
(0.5/5)
Reportar este acorde/tab
  Añadir a tus favoritos
  Imprimir
intro

A|----------8-9 
E|--7h9h10-7---

Trompetas(riff1)

D|----4-3-0
A|--2---------5---0
E|----------3---2

Todo x 3

D|----4-3-0
A|--2-------
E|----------3332

‘Negro …’(riff 2)
D|----4-3-0
A|--2-------3----7
E|-------------5---3232

Todo x 3

D|----4-3-0
A|--2-------3-
E|-------------5553

‘multiracial…’
D|----4-3-0
A|--2---------5---0
E|----------3---2

Todo x 3

D|----4-3-0
A|--2-------
E|----------3332

Trompetas(riff1)

D|----4-3-0
A|--2---------5---0
E|----------3---2

Todo x 3

D|----4-3-0
A|--2-------
E|----------3332
‘Desde filipinas…’
D|----4-3-0
A|--2-------3----7
E|-------------5---3232

Todo x 3

D|----4-3-0
A|--2-------3-
E|-------------5553

‘multiracial…’
D|----4-3-0
A|--2---------5---0	
E|----------3---2

Todo x 3

D|----4-3-0
A|--2-------
E|----------3332

‘no fron…’
e|77-55-3333-2222
(x2)

‘rompamos…’
se improvisa en la escala de si menor(o se toca solo el si si uno lo desea)

‘gritarè…’
a|22222222-------------------55555555
e|---------22222222-55555555---------

a|---------22222222----------22222222
e|33333333----------22222222
todo x2

‘ay ay ay..’
a|2---------
e|---332----
(x3)
a|2---
e|--3332

estas son las partes de la canciòn escuchen el ritmo y armenla.
Quejas,saludos,sujerencias o correcciones ????
E-mail : kal@argentina.com

Hecho por el bajista de madagaska’ 
mauro85
pido perdòn a los que no les gusta mi tab
saludos!
		   
AcordesyTabs.com © 2008 Acordes y Tablaturas para guitarra. Tabs and Chords for guitar. Aviso Legal - Contacto
El uso de este sitio está sujeto a la aceptación de los términos y condiciones (23 usuarios online)