tablaturas, partituras y acordes para guitarra
Busca por banda/artista:
 
y/o título de la canción:
A B C D E F G H I J K L M N O P Q R S T U V W X Y Z 0 1 2 3 4 5 6 7 8 9 / Top 100 tabs
Categorías
Usuarios
usuario:
Darse de alta
password:
Artistas más visitados
Publicidad
TOP acordes y tablaturas de Misc


Riffs
de Misc
Puntúa este acorde/tab:      
(0.2/5)
Reportar este acorde/tab
  Añadir a tus favoritos
  Imprimir


e--0-----0---0--
B------0---0----
G----0----------
D---------------
A---------------
E--0------------<<<<<<<<<<repeat 4 times

then.....

e--7------7---7--8-----8--7----7--/0------0---0--------0---0-----------------------
B--5----0---0-------------0-------/-----0---0--------0---0-------------------
G-----0-------------0--------0----/---0------------0-----------------------
D---------------------------------/----------------------------------
A---------------------------------/----------------------------------
E--0-------------0----------------/0-------------0--------------------------
   start 1                                   ending 1

e----2-----2---2--0-----0---0---------0---0-----------------------------------
B----3---0---0--------0---0--------0----0----0------------------------------
G------0------------0-----------0--------------0-------------------------
D------------------------------------------------2-------------------
A-------------------------------------------------------------------
E----0------------0-----------0----------------------------------------
        ending 2

that's not all, more to come


		   
AcordesyTabs.com © 2008 Acordes y Tablaturas para guitarra. Tabs and Chords for guitar. Aviso Legal - Contacto
El uso de este sitio está sujeto a la aceptación de los términos y condiciones (27 usuarios online)