tablaturas, partituras y acordes para guitarra
Busca por banda/artista:
 
y/o título de la canción:
A B C D E F G H I J K L M N O P Q R S T U V W X Y Z 0 1 2 3 4 5 6 7 8 9 / Top 100 tabs
Categorías
Usuarios
usuario:
Darse de alta
password:
Artistas más visitados
Publicidad
TOP acordes y tablaturas de José Feliciano


Te esperaré
de José Feliciano
Puntúa este acorde/tab:      
(0.7/5)
Reportar este acorde/tab
  Añadir a tus favoritos
  Imprimir
Luego de una breve Intro, entra esto:

*C - G - Am - F - G
e|-3-3-1-0----------0-0/1-0----------0-------------------
B|---------3.-3-3-3-----------1--3-1------1/3-1-0---0/1--
G|---------------------------2----------2---------2------
D|--------------------------2----------------------------
A|-------------------------------------------------------
E|-------------------------------------------------------

*C - G - Am - F - G					|Am|
e|-3-3-3-1-0----------0-0/1-0----------1------0-------------|
B|-----------3.-3-3-3------------1-3-5-1----2---3.-1-0---1--|
G|-----------------------------------5----3--------------2--| Am...
D|-----------------------------2----------------------------|
A|-------------------------------------------------------0--|
E|----------------------------------------------------------|


C	F	     Dm		G		C
No sin pensar te alejé y hoy no sé qué voy a hacer
	  F	Dm		G	Am
oir tu adiós sin cesar, ya me hace padecer
	    Dm		  Am	    F	   G
y el vacío que me envuelve lo llenaré si vuelves.


*CORO*
C	     G		     Am
Tú eres mi amor, contigo se fue
	F	G	  C
ahora y siempre te esperaré
	    G			Am
tú eres mi fe, estés donde estés
	    F	   G	    Am
sabrás que siempre te esperaré.


C	F	     Dm		G		C
Amor tan grande nunca verás si rosó la eternidad
	  F		Dm		G	Am
sufrí mi parte por mi desliz y hoy no puedo olvidar
	    Dm		Am		F     G
no ves que así de a pocos, me estoy volviendo loco.


*CORO*
C	     G		     Am
Tú eres mi amor, contigo se fue
	F	G	  C
ahora y siempre te esperaré
	    G			Am
tú eres mi fe, estés donde estés
	    F	   G	    Dm
sabrás que siempre te esperaré.


	   C		F
Y si al final voy a salvar nuestro amor
Dm	  C		F		G
comprenderé que existe Dios, que me escuchó.


Solo: C - G - Am - F - G (x2)


Am	   Dm		Am		  F     G
No ves que así de a pocos, me estoy volviendo loco.


*CORO*
C	     G		     Am
Tú eres mi amor, contigo se fue
	F	G	  C
ahora y siempre te esperaré
	    G			Am
tú eres mi fe, estés donde estés
	    F	   G	    C - G - Am - F - G	   C
sabrás que siempre te esperaré.		te esperaré
	    G			Am
tú eres mi fe, estés donde estés
	    F	   G	    C
sabrás que siempre te esperaré.





	           ------
	        º-|¤    ¤|-º
	        º-| LuïS |-º
	        º-|¤    ¤|-º
	               /
		    |  |
	·===========================·
	| luis_6cuerdas@hotmail.com |
	·===========================·


*Si hubiese algún error o alguna duda, escribe al mail o avisa por MSN*
		   
AcordesyTabs.com © 2008 Acordes y Tablaturas para guitarra. Tabs and Chords for guitar. Aviso Legal - Contacto
El uso de este sitio está sujeto a la aceptación de los términos y condiciones (33 usuarios online)