tablaturas, partituras y acordes para guitarra
Busca por banda/artista:
 
y/o título de la canción:
A B C D E F G H I J K L M N O P Q R S T U V W X Y Z 0 1 2 3 4 5 6 7 8 9 / Top 100 tabs
Categorías
Usuarios
usuario:
Darse de alta
password:
Artistas más visitados
Publicidad
TOP acordes y tablaturas de Zen


Nada
de Zen
Puntúa este acorde/tab:      
(0.3/5)
Reportar este acorde/tab
  Añadir a tus favoritos
  Imprimir
hola me llamo luis R,soy hincha de zen y por eso me saque 
esta canción que es una de los bonus y esta bien bacan
espero que lo sepan aprovechar.


 Intro
 down guitarra

 e--------------15---------15--17-15-15------15---------15--17-15-15
 B-(21)(21)13-15--15--13-15--15---------13-15--15--13-15--15--------  
 G------------------------------------------------------------------
 D------------------------------------------------------------------
 A------------------------------------------------------------------
 E------------------------------------------------------------------

 siguiente higher guitarra

 e--------------------------------------------------------------
 B-1-3------1-3-6-6-9-11-10-11-10-6-4-3/4-3-------1-3-----------
 G-----3-2/3--------------------------------3-2/3-2---3-2/3-2---
 D-----------------------------------------------------------3-5
 A--------------------------------------------------------------
 E--------------------------------------------------------------

 estrofa
 
 I be waiting.....
 
 e-----------------             e-------------------15---------15-
 B-----------------  repetir    B----------13-15--15--13-15--15---
 G----0--------0---  8 veces    G-5555----------------------------
 D--3--3--3-3---3--             D-5555----------------------------
 A-3-3--3--3-3---3-             A-3333----------------------------
 E-----------------             E---------------------------------


 coro
 
 nooothinggg.....

 e----------------------          ---------------------
 B----------------------          -----------(21)(21)--
 G----5555----3333------  REPETIR ------5555-----------
 D----5555555533333333--  4 VECES ------5555-----------
 A----3333555511113333--          ------3333-----------
 E--------3333----1111--          ---------------------


 
 Y ESO ES TODO YA QUE LAS ESTROFAS Y EL CORO SON IGUALES ,
 EL SOLO TIENE EL ACOMPAÑAMIENTO DEL CORO, SON LAS MISMAS 
 NOTAS.....Y CHEVERE ,ESA ES TODA LA CANCION PARA ALGUNA 
 CONSULTA MI MSN ES leo_lrb@hotmail.com  SALUDOS PARA TODA 
 LA GENTE QUE LE VACILA EL BUEN ROCK.
		   
AcordesyTabs.com © 2008 Acordes y Tablaturas para guitarra. Tabs and Chords for guitar. Aviso Legal - Contacto
El uso de este sitio está sujeto a la aceptación de los términos y condiciones (49 usuarios online)