tablaturas, partituras y acordes para guitarra
Busca por banda/artista:
 
y/o título de la canción:
A B C D E F G H I J K L M N O P Q R S T U V W X Y Z 0 1 2 3 4 5 6 7 8 9 / Top 100 tabs
Categorías
Usuarios
usuario:
Darse de alta
password:
Artistas más visitados
Publicidad
TOP acordes y tablaturas de Diazepunk


Estás en: Inicio > Letra D > Acordes y tablaturas de Diazepunk > Nada entre nosotros dos
Nada entre nosotros dos
de Diazepunk
Puntúa este acorde/tab:      
(0.7/5)
Reportar este acorde/tab
  Añadir a tus favoritos
  Imprimir
saludo especialote para 'la naris de boton' cuidate se que no te veo pero igual
SONRRIE siempre y no olvides lo que pasamos.(relativamente esta cancion es para ti o por ti)
Igual paa la gente pogera de toda la vida pra las bandas de toda la vida y patra todos
CHUFASSSSSSSSSSSSSSSSSSSSSSSSSSSSSSSSSSSSSSSSSSSSSSSSSS.

     A5 C#5 F#5 D5 (x2)

  1|------------------------------------------------------------------------
  2|-----9-9-7-7-6-------9-9-7-7-6--------9-9-7-7-6-------------------------
  3|--7---------------7---------------7-------------------6-6-9-9-6---------
  4|------------------------------------------------------------------------
  5|------------------------------------------------------------------------
  6|------------------------------------------------------------------------
                                                                       (dos veces y rapido)

        A5                   A5                A5
  1|------------------------------------------------------------------------
  2|------------------------------------------------------------------------
  3|--6-7-6-9-6-----6-7-6-9-6-----6-7-6-9-6---------------------------------
  4|------------------------------------------------------------------------
  5|------------------------------------------------------------------------
  6|------------------------------------------------------------------------


A5    C#5  F#5      D5
  otra vez te enojas
A5    C#5     F#5      D5
volvemos a terminar
A5                           C#5             F#5                           D5
no se cuanto durara esta vez la historia siempre es igual hay que pelear
A5                 C#5               F#5                        D5
luego volver pero al besar pues sabemos que nunca es el final

A5           C#5   F#5     D5
estamos locos lo se
A5             C#5          F#5                 D5
nos gusta terminar  por que nos gusta volver
A5                           C#5             F#5          D5
poco tiempo ha de pasar para sentirnos  mal y llamaras
A5               C#5             F#5                         D5
o llamare no importa pues quien ninguno lograra encontrar
E6         D5     E6            D5
u...na razon     u....na razon

para al final aceptar
A5                 B5   C#5               D5
que no hay nada         nada entre nosotros dos
A5                 B5   C#5               D5
que no hay nada         nada entre nosotros dos
A5                 B5   C#5               D5
                        nada entre nosotros dos

       B5 F#5 G#5 A5/G#5 (x2)
  1|------------------------------------------------------------------------
  2|-----9-9-7-7-6-------9-9-7-7-6--------9-9-7-7-6-------------------------
  3|--7---------------7---------------7-------------------6-6-9-9-6---------
  4|------------------------------------------------------------------------
  5|------------------------------------------------------------------------
  6|------------------------------------------------------------------------

esta bien perdona dime esta vez que hice mal
A5                              C#5             F#5                        D5
dime por que llamaste esta vez tambien yo pensaba en llamar irte a buscar,
A5                           C#5             F#5                  D5
volverte a ver sin entender por que ninguno ha logrado encontrar
E6         D5     E6            D5
u...na razon     u....na razon

para al final aceptar
A5                 B5   C#5               D5
que no hay nada         nada entre nosotros dos
A5                 B5   C#5               D5
que no hay nada         nada entre nosotros dos
A5                 B5   C#5               D5
                        nada entre nosotros dos

A5 C#5 F#5 D5 (x2)

  1|------------------------------------------------------------------------
  2|------------------------------------------------------------------------
  3|--------------------------------------------------  -3 veces-  ---------
  4|-------------6-6-6-6-6-------------7-7-7-7-7----------------------------
  5|--7-7-7-7-7--4-0-4-0-4--4-4-4-4-4--5-5-5-5-5----------------------------
  6|--5-O-5-0-5-------------2-0-2-0-2---------------------------------------

  1|------------------------------------------------------------------------
  2|------------------------------------------------------------------------
  3|------------------------------------------------------------------------
  4|-------------6-6-6-6-6---------------7-5-5-4-4-5-5-7-7-5-5-4-4-5--------
  5|--7-7-7-7-7--4-0-4-0-4--4-4-4-4-4---------------------------------------
  6|--5-O-5-0-5-------------2-0-2-0-2---------------------------------------
                                        |   ·esta parte es rapida·    |

E6         D5     E6            D5
u...na razon     u....na razon

para al final aceptar
A5                 B5   C#5               D5
que no hay nada         nada entre nosotros dos
A5                 B5   C#5               D5
que no hay nada         nada entre nosotros dos
A5                 B5   C#5               D5
que no hay nada         nada entre nosotros dos
A5                 B5   C#5               D5
que no hay nada         nada entre nosotros dos
A5                 B5   C#5               D5                (aca entra el punteo del inicio
                        nada entre nosotros dos                 hasta terminar la cancion)
     A5 C#5 F#5 D5

  1|------------------------------------------------------------------------
  2|-----9-9-7-7-6-------9-9-7-7-6-------9-9-7-7-6--------------------------
  3|--7---------------7---------------7-------------------6-6-9-9-6---------
  4|------------------------------------------------------------------------
  5|------------------------------------------------------------------------
  6|------------------------------------------------------------------------

        A5                 A5                A5
  1|------------------------------------------------------------------------
  2|------------------------------------------------------------------------
  3|--6-7-6-9-6-----6-7-6-9-6-----6-7-6-9-6---------------------------------
  4|------------------------------------------------------------------------
  5|------------------------------------------------------------------------
  6|------------------------------------------------------------------------

FIN
		   
AcordesyTabs.com © 2008 Acordes y Tablaturas para guitarra. Tabs and Chords for guitar. Aviso Legal - Contacto
El uso de este sitio está sujeto a la aceptación de los términos y condiciones (32 usuarios online)