tablaturas, partituras y acordes para guitarra
Busca por banda/artista:
 
y/o título de la canción:
A B C D E F G H I J K L M N O P Q R S T U V W X Y Z 0 1 2 3 4 5 6 7 8 9 / Top 100 tabs
Categorías
Usuarios
usuario:
Darse de alta
password:
Artistas más visitados
Publicidad
TOP acordes y tablaturas de Ricardo Arjona


Te guste o no
de Ricardo Arjona
Puntúa este acorde/tab:      
(0.8/5)
Reportar este acorde/tab
  Añadir a tus favoritos
  Imprimir
| Gtr I
|
||-2---5---------0-|---0-2---------|---------0-----|-----------------------|----------2---2-0-|---0-2---------0---|
||-3-----------2---|-3---3-3-0-2-3-|-2---3---------|-------0-2-3-2-3-2-0---|------2/3---0-----|-3-----3-0-2-3---3-|
||-2-----4---2-----|-4-------0---1-|-2-2---0---2---|-4-------------------2-|------4-----------|-------------------|
||---0-------------|---------------|---------------|-4-0-4-----2-----------|-/4-4-------------|-------------------|
||---------4-------|-2---0---------|-0---2---4-----|-------------------0---|------------------|-2---0-------------|
||-----------------|---------3-----|---------------|-----------------------|--------------2---|---------3---0-----|


| Gtr I
|
|-5---3---0----||
|---2---0-----º||
|-----------2--||
|-------------º||
|-0---2---4----||
|--------------||
		   
AcordesyTabs.com © 2008 Acordes y Tablaturas para guitarra. Tabs and Chords for guitar. Aviso Legal - Contacto
El uso de este sitio está sujeto a la aceptación de los términos y condiciones (32 usuarios online)