tablaturas, partituras y acordes para guitarra
Busca por banda/artista:
 
y/o título de la canción:
A B C D E F G H I J K L M N O P Q R S T U V W X Y Z 0 1 2 3 4 5 6 7 8 9 / Top 100 tabs
Categorías
Usuarios
usuario:
Darse de alta
password:
Artistas más visitados
Publicidad
TOP acordes y tablaturas de Zona 7


Estás en: Inicio > Letra Z > Acordes y tablaturas de Zona 7 > Te Nececito
Te Nececito
de Zona 7
Puntúa este acorde/tab:      
(0.6/5)
Reportar este acorde/tab
  Añadir a tus favoritos
  Imprimir
este mi primer trabajo en ATAME espero les guste el 
intro esta perfecto va asi:

e/---------------------------------------
b/---------------------------------------se repite
g/---------------------------------------
D/--7-7---5-5-7--------------------------
A/------7--------------------------------
E/---------------------------------------

e/---------------------------------------
b/---------------------------------------
g/---------------------------------------
D/--10arrastrado17-----10---9------------
A/---8----------15------8---7------------
E/---------------------------------------

rifft 1
e/---------------------------------------
b/---------------------------------------
g/---------------------------------------
D/--5-5-3-2------------------------------
A/---------------------------------------
E/---------------------------------------

En esto todos juntos

e/----------------------------------------------------
b/---------------6---6---6----------6-6-6---8-10------
g/-----------------5---5---5--------5-5-5---7--9------
D/-----0-1-2-3-------3---3---3------3-3-3---5--7------
A/-3-3------------------------------------------------
E/----------------------------------------------------

e/--------------------------------------------
b/--5--5--5-----------------------------------
g/---5--5--5----------5-----------------------
D/----7--7--7---7-7-7---7---------------------
A/--------------------------------------------
E/--------------------------------------------


bueno aqui esta espero sea de su agrado nos vemos y ya saben
cualquier duda a mi correo chundia@hotmail.com chau........
		   
AcordesyTabs.com © 2008 Acordes y Tablaturas para guitarra. Tabs and Chords for guitar. Aviso Legal - Contacto
El uso de este sitio está sujeto a la aceptación de los términos y condiciones (27 usuarios online)