tablaturas, partituras y acordes para guitarra
Busca por banda/artista:
 
y/o título de la canción:
A B C D E F G H I J K L M N O P Q R S T U V W X Y Z 0 1 2 3 4 5 6 7 8 9 / Top 100 tabs
Categorías
Usuarios
usuario:
Darse de alta
password:
Artistas más visitados
Publicidad
TOP acordes y tablaturas de Incubus


11 Am
de Incubus
Puntúa este acorde/tab:      
(0.2/5)
Reportar este acorde/tab
  Añadir a tus favoritos
  Imprimir
11 am by incubus
tabbed by owen jones
email me at hoju2@Hotmail.com with comments/suggetsions

|---2-2-2----------------|---2-2--------------------------
|---0-0-0----------------|---0-0--------------------------
|------------------------|--------------------------------
|-2---------0---0/2---0|-2-----------0-4-5---0/2------
|-2------------3------2--|-2---------3---------------2-0--
|-0-------3--------------|-0------------------------------

verse

|---2-2-2----------------|---------------------------------
|---0-0-0----------------|---------------------------------
|------------------------|---------------------------------
|-2---------0---0/2---0|-------------0-4-5------0/2----
|-2------------3------2--|-7-7-7-7-3-----------------2-0---
|-0-------3--------------|-5-5-5-7-------------------------

pre chorus
for a while:  then:
|--------       |--
|--------       |--
|---4---4       |-4
|-2---4--       |-4
|--------       |-2
|--------       |--

chorus
|---2*--2----
|---3---3-5--
|---2---2-4-2
|-2---2---2-2
|-2---2------
|------------
* you could add a G with your pincky on the high e string

bridge
a few times  then: for a while
|-------0      |-0-0-0-0-0
|-------0      |-0-0-0-0-0
|-----4-4      |-2-2-2-2-2
|---4---4      |-2-2-2-2-2
|-2-----2      |-0-0-0-0-0
|-------0      |-0-0-0-0-0



		   
AcordesyTabs.com © 2008 Acordes y Tablaturas para guitarra. Tabs and Chords for guitar. Aviso Legal - Contacto
El uso de este sitio está sujeto a la aceptación de los términos y condiciones (16 usuarios online)