tablaturas, partituras y acordes para guitarra
Busca por banda/artista:
 
y/o título de la canción:
A B C D E F G H I J K L M N O P Q R S T U V W X Y Z 0 1 2 3 4 5 6 7 8 9 / Top 100 tabs
Categorías
Usuarios
usuario:
Darse de alta
password:
Artistas más visitados
Publicidad
TOP acordes y tablaturas de Incubus


11am
de Incubus
Puntúa este acorde/tab:      
(0.2/5)
Reportar este acorde/tab
  Añadir a tus favoritos
  Imprimir

11am - Incubus

Tabbed by Auryn S.


Note: Surely one of the best tracks on Morning View. This tab is about 98% corre


Intro/Verse:

   pm.....|     pm...|    pm.
||---------------------------|
||---------4-----------------|
||-----x-x-2----2------------|
||-----x-x-0----0---2-2p0--0-|  x3
||-----------------3-3----3--|
||-0--------------0----------|

   pm.....|     pm
||---------------------------|
||---------4-----------------|
||-----x-x-2----2------------|
||-----x-x-0----0---4-0-2p0-0|  x3
||-----------------2-2-----3-|
||-0--------------0----------|
		   
AcordesyTabs.com © 2008 Acordes y Tablaturas para guitarra. Tabs and Chords for guitar. Aviso Legal - Contacto
El uso de este sitio está sujeto a la aceptación de los términos y condiciones (31 usuarios online)