tablaturas, partituras y acordes para guitarra
Busca por banda/artista:
 
y/o título de la canción:
A B C D E F G H I J K L M N O P Q R S T U V W X Y Z 0 1 2 3 4 5 6 7 8 9 / Top 100 tabs
Categorías
Usuarios
usuario:
Darse de alta
password:
Artistas más visitados
Publicidad
TOP acordes y tablaturas de Incubus


Estás en: Inicio > Letra I > Acordes y tablaturas de Incubus > A Crow Left Of The Murder 2
A Crow Left Of The Murder 2
de Incubus
Puntúa este acorde/tab:      
(0.2/5)
Reportar este acorde/tab
  Añadir a tus favoritos
  Imprimir
This Song Has Some Amazing Guitar Work By Mike In It.
Im Not Going To Take The Time To Tab Out Exactly How It Goes,
But Heres A Good Start For Yall.

Song: A Crow left Of The Murder
Album: A Crow left Of The Murder
Artist: Incubus

VERSE
----------------------------------------------------
----------------------------------------------------
----------------------------------------------------
--------9---------------9---------(x2)--------------
---9-11--11-9-11---9h11---11-9-11-------------------
--(0)-------------0---------------------------------

-----------------------------------------------------
-----------------------------------------------------
-----------------------------------------------------
--------13-------------------9-----------------------(x1)(enire line)
---9-11----11-9-11------9h11---11-9-11----9-9-9------
--(0)-----------------0--------------------------12--

CHROUS

----------------------------
----------------------------
--4--------11--------8------
--5--------12--------9------   (Youll Figure Out The Strumming, Just Listen)
--5--------12--------9------
--3--------10--------7------

INTERLUDE
------------------------------------------------------
------------------------------------------------------
-4----7----9---4----4---2---4---5----4---5---4-------- (Here Again, Listen For S
---s----s---------------------s-----------------------
-2----5----7---2----2---0---2---3----2---3---2--------
------------------------------------------------------

Thats About It. That Should Be A Good Start To Playing This Song. Enjoy!
		   
AcordesyTabs.com © 2008 Acordes y Tablaturas para guitarra. Tabs and Chords for guitar. Aviso Legal - Contacto
El uso de este sitio está sujeto a la aceptación de los términos y condiciones (31 usuarios online)