tablaturas, partituras y acordes para guitarra
Busca por banda/artista:
 
y/o título de la canción:
A B C D E F G H I J K L M N O P Q R S T U V W X Y Z 0 1 2 3 4 5 6 7 8 9 / Top 100 tabs
Categorías
Usuarios
usuario:
Darse de alta
password:
Artistas más visitados
Publicidad
TOP acordes y tablaturas de Attaque 77


Neo-satan
de Attaque 77
Puntúa este acorde/tab:      
(0.5/5)
Reportar este acorde/tab
  Añadir a tus favoritos
  Imprimir
Intro:  Dm             Am          Gm
     e|---------------------------------------------------------
     b|---------------------------------------------------------
     g|-7-----7--9-/10-9--5-------------------------------------
     D|-7--7--x--x--x--x--x---/7--/7--5/3/5--5--/7--10--7--5--3-
     A|-5-----5--7-/8--7--3----x---x--x-x-x--x---x--x---x--x--x-
     E|----5------------------/5--/5--3/1/3--3--/5--8---5--3--1-

  Dm               Am          Gm             C C# D5
e|---------------------------------------------------
b|---------------------------------------------------
g|-7-----7--9--10--12--10--12-/14--12/10--12---------       (x - no tocar la cuerda, tratar de
D|-7--7--x--x--x---x---x---x---x---x--x---x----5-5-7-        anular el sonido con algún dedo de
A|-5--x--5--7--8--/10--8---10-/12--10/8---10---3-4-5-        la mano izquierda, si son diestros)
E|----5----------------------------------------------


Dm                 Am        Gm
Rercuerdas al hombre de los cuernos?
Dm            Am                Gm    C C#
aquel viejo rojo, el rey del infierno?                         (sobre A7*)
Dm         Am                    Gm                           g|------/6--/9--/12--
si eres capaz de guardar un secreto                           D|--/7---x---x---x---
                A7* --------------------------------------->  A|---x--/4--/7--/10--
no lo vas a acreditar...                                      E|--/5---------------

Dm               Am                 Gm  C
Lo he visto en horas que, en el espejo ya no me reflejo
Dm            Am                  Gm
hechando puteadas a los cuatro vientos                          (Punteo*)
(sobre punteo*) ------------------------------------------>   g|-0^2^0---0------
que indignación!   dijo...                                    D|-------3---3-2--
                                               
Dm        Am                 Gm   C       Gm     F
cómo es posible que yo, El Diablo? sí, El Diablo!

            Dm                Am
me han despojado de mi autoridad
          Dm                 Am
fui desterrado así por un mortal
             Gm              C
Hoy ni a los niños podría asustar
          Gm            C        C#   Dm
y soy el hazme reir en este puto carnaval


(Intro)


Dm             Am                 Gm
Yo te puedo enseñar mis peores secretos del mal
Dm            Am                     Gm            C
a mentir y robar y que el pueblo te vuelva a votar
C#    Dm              Am              Gm
y a matar a tu propio hijo, si es necesario
C       Gm     F
Pobre Diablo!

         Dm                       Am
no sabe con quién se fue a involucrar
          Dm                    Am
gente implacable en el arte del mal
         Gm            C
ningún político es de fiar
              Gm                       c
y hay ciertas cosas que no hay que prestar

C#       Dm                   Am
ya la comparsa se empieza a alejar
           Dm                  Am
y el pobre diablo bailando detrás,
        Gm                C
tan decadente se pone a llorar
          Gm                 C     C#   Dm
pensando que su tridente lo tiene Neo-Satán,
(sobre intro)
Lo tiene Neo-Satán, 
Y rige Neo-Sarán.

Solo:
  Dm     Am     Gm                   Dm     Am            Gm
e|-5---5--5---5--5------------------------------8--------8(10)8(10)8(10)--8(10)8(10)8-5-
b|--6---6--6---6--6-------------------6----8(10)--8(10)8--------------------------------
g|---7---7--7---7--7~---------5---5-7---7~----------------------------------------------
D|------------------------6^7---7-------------------------------------------------------
A|--------------------5-8---------------------------------------------------------------
E|--------------------------------------------------------------------------------------

  Dm                                        Am Gm    
e|-13^10---13^10---13^10---13^10---13^10---         --------------------
b|------10------10------10------10------10-  ...    -13(15)13(15)13(15)-  Sigue con wah-wah ...
g|-----------------------------------------         --------------------  
D|-----------------------------------------         --------------------  vientos... fin
A|-----------------------------------------         --------------------
E|-----------------------------------------         --------------------  (todo sobre Dm Am Gm)


/                                                                                        
| ^ - ligar la nota con un solo golpe de púa                                             |
| / - slide - deslizar el dedo en el diapasón hasta la siguiente nota                    |
| x - cuerda que no debe sonar                                                           |
|(0)- estirar la cuerda hasta que suene la nota dentro del paréntesis, en este caso cero |
                                                                                        /
		   
AcordesyTabs.com © 2008 Acordes y Tablaturas para guitarra. Tabs and Chords for guitar. Aviso Legal - Contacto
El uso de este sitio está sujeto a la aceptación de los términos y condiciones (23 usuarios online)